Red Hot Chili Peppers

Fat Dance Tabs



More from Red Hot Chili Peppers

Red Hot Chili Peppers Tabs
Red Hot Chili Peppers Chords
Red Hot Chili Peppers Bass
Red Hot Chili Peppers Lyrics

Fat Dance by the Red Hot Chili Peppers 
tabbed by dan natoli Primusnpeppers@hotmail.com. i also  
tabbed castles made of sand 
Intro 
G------------------------------------------- 
D-----------5-5-4------------------------- 
A-7-7-7-7-7-------7-7-7-7-7-5-5-5- 
E-------------------------------------------X2 
Verse 
G--------------------------------------------------- 
D--------------------------------------------------- 
A-2-2--2-2--2-3-3-3-2-2--2-2--2----------- 
E----------------------------------------3-3-3-3- 
  
G----------------------------------------------------- 
D------------------------------------------------------ 
A-2-2--2-2--2-3-3-3-2-2--2-2--2------5-4-3- 
E---------------------------------------3-3-3------- 
Chorus 
G-------------------------------------------------------------- 
D--------------------------------------------------------------- 
A--------------------------------------------------------------- 
E-2-2--2-2--2-2--2-2--2-2--2-2--2-2--2-2--2-2--2-2- 
  
G-------------------------------------------------------------------------------- 
D--------------------------------------------------------------------------------- 
A----------------------------------------------------------/9-9-9-9-9-9-9-9- 
E-2-2--2-2--2-2--2-2--2-2--2-2--2-2--2-2--2-2----------------------- 
Bridge(not exact) 
G---9---7---------------7h9-*---7---5--------------5h7-*- 
D--------------9------7----------------------7-----5--------- 
A-7---7--7----7h9----------*-5---5---5---5h7----------*- 
E--------------------------------------------------------------- 
  
G---5---3----------------3h5-*-        *-these mean repeat once 
D-------------5--------3-------- 
A-3---3---3-----3h5---------*- 
E--------------------------------- 
Outro 
G-9999999999999999999---- 
D--------------------------------------- 
A--------------------------------------- 
E------------------------------------7-
Get this song at amazon.com      Ebay     Ringtones Ringtones  


Learn to play: Songwriting, Piano, Harmonica, Guitar
Also available at Muzikum: Red Hot Chili Peppers - Fat dance lyrics

Related Red Hot Chili Peppers Tabs

Hey tabs
River Of Avalon tabs
By The Way tabs
Dany California tabs
Californication (song) tabs
If You Have To Ask tabs
Warlocks Bass tabs
Melancoly Mechanics tabs
Snow Hey Oh Bass tabs
Hyde Park Solo tabs
So Much I Bass tabs
Bob Bass tabs
Time tabs
Breaking The Girl! tabs
Lovercall tabs
Quixoticelixir Bass tabs
By The Way Bass tabs
She Looks To Me Bass tabs
Dani California W/ Lyrics tabs
Boyz N The Hood tabs


Guitar Tabs









All tabs are property and copyright of their owners. All tabs provided for educational purposes only. Privacy Policy, DMCA