Red Hot Chili Peppers

Especialy In Michigan Tabs



More from Red Hot Chili Peppers

Red Hot Chili Peppers Tabs
Red Hot Chili Peppers Chords
Red Hot Chili Peppers Bass
Red Hot Chili Peppers Lyrics




e|-----------------------------------------|
B|-----------------------------------------|
G|-----------------------------------------|
D|--9h11-11-11-11-11-11-11-11-11-----------|
A|-----------------------------------------|
E|-----------------------------------------|

e|-----------------------------------------|
B|-----------------------------------------|
G|-------------------------9h11-9----------|
D|--9h11-11-11-11-11-11-11-----------------|
A|-----------------------------------------|
E|-----------------------------------------|

e|-----------------------------------------|
B|-----------------------------------------|
G|-----------------------------------------|
D|--9h11-11-11-11-11-11-11-11-11-----------|
A|-----------------------------------------|
E|-----------------------------------------|

e|-----------------------------------------|
B|---------------------------7-7h9p7--7----|
G|-------------------------9--------9---9--|
D|--9h11-11-11-11-11-11-11-----------------|
A|-----------------------------------------|
E|-----------------------------------------|

0:10 (distorsion) 0:29

e|-------------------------- -----14----14--14--14----14----14----------|
B|----14-14----14-14----14-- ---14----14------------14----14------------|
G|-11-------11-------11----- -11----11----11--11--11----11--------------|
D|-------------------------- -------------------------------------------|
A|-------------------------- -------------------------------------------|
E|-------------------------- -------------------------------------------|

(Clean)
0:56 cry me a future...

e|--------------------------------------------------------------------|
B|--14----14----14---12----12----12--14----14----14--15----15----15---|
G|----14----14-----------13----13--------14----14--------14----14-----|
D|------14----14--14---14----14--------16----16--------16----16-------|
A|--------------------------------------------------------------------|
E|--------------------------------------------------------------------|

1:06 lions and tigers...

e|---------------------------------------------------14----14----14----14----14-----|
B|--14----14----14---12----12----12--14----14----14------15----15----15----15----15-|
G|----14----14-----------13----13--------14----14------14----14----14----14----14---|
D|------14----14--14---14----14--------16----16-------------------------------------|
A|----------------------------------------------------------------------------------|
E|----------------------------------------------------------------------------------|

1:18

Guitar 1
e|--------------------------|
B|--------------------14~---|
G|--------------------------|
D|-11~~~-11~~~-11~-~--------|
A|--------------------------|
E|--------------------------|

guitar 2

e|--------------------------|
B|----14-14----14-14----14--|
G|-11-------11-------11-----|
D|--------------------------|
A|--------------------------|
E|--------------------------|

1:33

guitar 1

e|----14~--14-19-14-19-14-19--|
B|-14~------------------------|
G|----------------------------|
D|----------------------------|
A|----------------------------|
E|----------------------------|

Guitar 2

e|--------------------------|
B|----14-14----14-14----14--|
G|-11-------11-------11-----|
D|--------------------------|
A|--------------------------|
E|--------------------------|


1:45


e|-------------------------|
B|-------------------------|
G|-------------------------|
D|--7--2--4-0---7-2-4-0----|
A|--7--2--4-0---7-2-4-0----|
E|--5--0--2-x---5-0-2-x----|



Get this song at amazon.com      Ebay     Ringtones Ringtones  


Learn to play: Songwriting, Piano, Harmonica, Guitar
More Red Hot Chili Peppers lyrics available at Muzikum

Related Red Hot Chili Peppers Tabs

Blackeyed Blonde tabs
Two-note Chord/melody Idea tabs
Body Of Water tabs
Intro tabs
True Men Dont Kill Coyotes tabs
Boyz N The Hood tabs
Suck My Kiss tabs
Charlie Bass tabs
Ethiopia tabs
Venice Queen (3) tabs
Walkabout tabs
Dani California Solo Tab tabs
Brandy Live At Hyde Park tabs
Buckle Down tabs
Desecration Smile tabs
Californication Solo VMA tabs
Tear (3) tabs
Dani California Guitar Tab tabs
Mommy Wheres Daddy Bass tabs
Lovercall tabs


Guitar Tabs









All tabs are property and copyright of their owners. All tabs provided for educational purposes only. Privacy Policy, DMCA