Red Hot Chili Peppers

Especially In Michigan Tabs



More from Red Hot Chili Peppers

Red Hot Chili Peppers Tabs
Red Hot Chili Peppers Chords
Red Hot Chili Peppers Bass
Red Hot Chili Peppers Lyrics



-------------------------------------------------------------------------------

Especially In Michigan - Red Hot Chili Peppers

-------------------------------------------------------------------------------

Tabbed by: aNDr3s

Email: webmaster at tabs-database.com.com



Tuning:eBGADAE



Con mucho cariņo para todos mis amigos!

Q viva Ecuador carajo!!!!



e|-----------------------------------------|

B|-----------------------------------------|

G|-----------------------------------------|

D|--9h11-11-11-11-11-11-11-11-11-----------|

A|-----------------------------------------|

E|-----------------------------------------|



e|-----------------------------------------|

B|-----------------------------------------|

G|-------------------------9h11-9----------|

D|--9h11-11-11-11-11-11-11-----------------|

A|-----------------------------------------|

E|-----------------------------------------|



e|-----------------------------------------|

B|-----------------------------------------|

G|-----------------------------------------|

D|--9h11-11-11-11-11-11-11-11-11-----------|

A|-----------------------------------------|

E|-----------------------------------------|



e|-----------------------------------------|

B|---------------------------7-7h9p7--7----|

G|-------------------------9--------9---9--|

D|--9h11-11-11-11-11-11-11-----------------|

A|-----------------------------------------|

E|-----------------------------------------|



0:10 (distorsion) 0:29



e|-------------------------- -----14----14--14--14----14----14----------|

B|----14-14----14-14----14-- ---14----14------------14----14------------|

G|-11-------11-------11----- Added by tabs-database.com and our distinguished partners
Get this song at amazon.com      Ebay     Ringtones Ringtones  


Learn to play: Songwriting, Piano, Harmonica, Guitar
Also available at Muzikum: Red Hot Chili Peppers - Especially In Michigan lyrics

Related Red Hot Chili Peppers Tabs

University Speaking tabs
I Could Die For You (2) tabs
Hollywood tabs
Magic Johnson tabs
Police Helicopter tabs
Hump De Bump Bass tabs
Lets Make Evil tabs
Tear tabs
Behind The Song tabs
Breaking The Girl tabs
Time tabs
Hey tabs
Millionaires Against Hunger tabs
Save The Population tabs
Californication (Version 2) tabs
If Bass tabs
Dani California Intro tabs
Cant Stop Intro tabs
Cant Stop Perfect tabs
Stadium Arcadium Bass tabs


Guitar Tabs









All tabs are property and copyright of their owners. All tabs provided for educational purposes only. Privacy Policy, DMCA