Red Hot Chili Peppers

Emit Remmus Bass Tabs



More from Red Hot Chili Peppers

Red Hot Chili Peppers Tabs
Red Hot Chili Peppers Chords
Red Hot Chili Peppers Bass
Red Hot Chili Peppers Lyrics



Made by Saiken (saiken@gmx.net)
Artist:Red Hot Chili Peppers
Song: Emit Remmus
Tuning: Standard, low to high E,A,D,G

Verse (Main Riff) Play 6 times

G|------------------------------------|
D|-------6p5h6p5h6--------6p5h6p5h6---|
A|-6-8-8------------6-8-8-------------|
E|----------------------------------6-|

Pre-Chorus, Play 2 times

G|-----------------------------------------|
D|-------6p5h6p5h6-6-6-------6p5h6p5h6-----|
A|-6-8-8---------------6-8-8---------------|
E|-------------------------------------6-6-|

Chorus, Play 4 times

G|--------------------------------|
D|---------6-6--X---------6-6-----|
A|-6-8-8-8--------6-8-8-8---------|
E|----------------------------6-6-|

Now hop back to Verse and play to chorus again but play it only 3 1/2 time
then the bridge

Bridge

G|------------------------------------|
D|------------------------------------|
A|-3--3--3-3--------------------------|
E|-----------4--4--4-4-66-6--6--6-6-0-|

G|-------------------------------------------|
D|-------------------------------------------|
A|-----------------3--3-5-6-5-3----6-5---3---|
E|-1-1-1-1-1-1-1-0---------------4-----4---4-|

G|--------------------------------------------|
D|------------------------------------3-------|
A|-----------------------------3--5-6---6-5-3-|
E|6--6-6--6-6-0-1-1--1-1-1-1-0----------------|

G|---------------------------------------------|
D|---------------------------------------------|
A|--------6-5----------------------------------|
E|-4--4-4-----4-6--6-6--6-6-0-1-1-1/13--13-13-|

G|---------------------------------------------------------|
D|-------------------------------------------------3-------|
A|-3--3-5-6-5-3--------------3-----------------------------|
E|---------------4--4-4--4-4---6--6-6--6-6-0-1-1-1---1-1-1-|

Play Verse once then

G|-----------------------------------------|
D|-------6p5h6p5h6-------6p5h6p5h6-8b(1/2)-|
A|-6-8-8-----------6-8-8-------------------|
E|-----------------------------------------|

Play Chorus three times then

Outro

G|-----------------------------|
D|---------6-6-----------6/11-|
A|-6-8-8-8-------6-8-8-8-------|
E|-------------8---------------|

That`s it quite easy huh?
please rate my tab! i think i`ve done well

Taken from The BassMasta -- http://www.tabs-database.com



Get this song at amazon.com      Ebay     Ringtones Ringtones  


Learn to play: Songwriting, Piano, Harmonica, Guitar
Also available at Muzikum: Red Hot Chili Peppers - Emit Remmus lyrics

Related Red Hot Chili Peppers Bass Tabs

Hump De Bump bass
The Righteous The Wicked bass
Theyre Red Hot bass
Higher Ground bass
Rolling Sly Stone Live bass
Tearjerker bass
Flea: Bass Solo 2 bass
Melancholy Mechanics bass
Fleas Warm Up bass
Funny Face bass
Give It Away(correct) bass
By The Way (Version 2) bass
Road Trippin bass
Baby Appeal bass
Flea Bass Solo:arpeggiating bass
Funky Crime bass
Californication (live At Slane) bass
Aeroplane bass
Slowly Deeply bass
Californication bass


Guitar Tabs









All tabs are property and copyright of their owners. All tabs provided for educational purposes only. Privacy Policy, DMCA

Online converter - videoconverter.com