Red Hot Chili Peppers

Easily Tabs



More from Red Hot Chili Peppers

Red Hot Chili Peppers Tabs
Red Hot Chili Peppers Chords
Red Hot Chili Peppers Bass
Red Hot Chili Peppers Lyrics

Standard Tuning



e --0-----------------0----1-------1--------------------------------

b --1-----------------3----3---3---3---3------3----1---1----0---1---

g --2-----2^-(2)-/-0--2----2---2---2---2--0---0----2---2----0---0---

d --2----------------------0---0---0---0------0----3---3----0---2---

a --0--------------------------------------------------3------------

e ------------------------------------------------------------------



e ------0-----------------------------------------------------------

b ------1----1---1--repeat a bunch----------------------------------

g ---0-------2---2--------------------------------------------------

d ---2-------2---2--------------------------------------------------

a -----------0---0--------------------------------------------------

e ------------------------------------------------------------------

Verse 1, 2

Am Dm F C/G Am Dm F C/G Am

Easily lets get carried away, Easily lets get married today

Dm F C/G Am

Shao Lin shouted a rose from his throat Everything must go

Dm Fsus2

A lickin stick is thicker when you break it to show

C/G Am

Everything must go



Chorus - use chords below, this is for verse 1,3

power chords - C 8x(10)988 G - 3x5433 F - 1x3211 Am - 5x7555

C G F C

The story of a woman on the morning of a war, Remind me if you will exactly

G F Am G F

what we're fighting for, Calling calling for something in the air

Am G F

Calling Calling I know you must be there

Chorus - verse 2, 3 after above, both have same chord structure

C G F C

The story of a woman on the morning of a war Remind if you will exactly

G F Am G

what we're fighting for Throw me to the wolves because there's order in

F Am G F

the pack Throw me to the sky because I know I'm coming back



Guitar Solo - after verse 2

e -12-10-12-12^-10-(10)-/-8-(8)-/-10-10^-7^-8~~~--7-8-8^-10^-7-7^-7-

b ----------12^--------------------------7^-------------------------

g ------------------------------------------------------------------

d ------------------------------------------------------------------

a ------------------------------------------------------------------

e ------------------------------------------------------------------



Verse 3

Am Dm D C/G Am

Shao Lin shakin for the sake of his soul Everything must go Lookin mighty

Dm Fsus2 C/G Am

tired of all the things that you own Everything must go



Outro

e -15-13-12-13-12--------12-----15--13-12-13-12--------12-----------

b ----------------13--12----13------------------13--12----13--------

g ------------------------------------------------------------------

d ------------------------------------------------------------------

a ------------------------------------------------------------------

e ------------------------------------------------------------------



e -17--15----15-------13/15-----17-15----15-------15----------------

b --------17----17-15-------17--------17----17-15----17-------------

g ------------------------------------------------------------------

d ------------------------------------------------------------------

a ------------------------------------------------------------------

e ------------------------------------------------------------------



e -15--13-12-13-12--------12------15--13-12-13-12--------12---------

b -----------------13--12----13-------------------13--12----13------

g ------------------------------------------------------------------

d ------------------------------------------------------------------

a ------------------------------------------------------------------

e ------------------------------------------------------------------



e -17--15----15--------12-15/12-17--15----15----17^-17-15----15-----

b --------17----17--13-----------------17----17-----------17----17~~

g ------------------------------------------------------------------

d ------------------------------------------------------------------

a ------------------------------------------------------------------

e ------------------------------------------------------------------



e -15--13-12-13-12--------12----------------------------------------

b -----------------13--12----13-----13-12-13-12---------------------

g -------------------------------12-------------12------------------

d --------------------------------------------------14--14-/(10)-14-

a ------------------------------------------------------------------

e ------------------------------------------------------------------



e -15/(17)~~-17-15--------15-------17^-17-15-17-15-------15---------

b -----------------17--15----17~~------------------17-15----13~~~---

g ------------------------------------------------------------------

d ------------------------------------------------------------------

a ------------------------------------------------------------------

e ------------------------------------------------------------------

Get this song at amazon.com      Ebay     Ringtones Ringtones  


Learn to play: Songwriting, Piano, Harmonica, Guitar
Also available at Muzikum: Red Hot Chili Peppers - Easily lyrics

Related Red Hot Chili Peppers Tabs

Otherside Live Intro tabs
Look Around tabs
Califorication tabs
Jungle Man Bass tabs
I Could Die For You (5) tabs
Make You Feel Better Bass tabs
By The Way tabs
Strip My Mind Solo tabs
Power Of Equality tabs
Lovercall tabs
Around The World (Version 2) tabs
Get On Top tabs
Love Rollercoaster tabs
Save The Population Intro tabs
Cant Stop Intro tabs
Hard To Concentrate tabs
Melancoly Mechanics tabs
Fortune Faded tabs
Fire (2) tabs
Dosed By Mick Maggot tabs


Guitar Tabs









All tabs are property and copyright of their owners. All tabs provided for educational purposes only. Privacy Policy, DMCA