Red Hot Chili Peppers

Easiliy Bass Tabs



More from Red Hot Chili Peppers

Red Hot Chili Peppers Tabs
Red Hot Chili Peppers Chords
Red Hot Chili Peppers Bass
Red Hot Chili Peppers Lyrics




Easily by the Red hot chili peppers

h=Hammer on
p=Pull of


Verse

G-------------5-0------------------|
D------5----7------3--5-7--0h2-0-2-|
A----7---5-------------------------|
E-5--------------------------------|

G-------------5-0-----5------------|
D------5----7------3----7--0h2-0-2-|
A----7---5-------------------------|
E-5--------------------------------|

Chorus

G---9---------------|---------|--------|
D-----10-------10---|---5-----|----3---|
A--------10-10----10|-----5---|--3---3-|
E-8-----------------|3------3-|1-------|

G-----------4------|--------|--------4h5p5------|--------|
D------7--5---5----|----3---|-----7--------5----|----3---|
A----7----------5--|--3---3-|---7------------5--|--3---3-|
E-5---------------3|1-------|5-----------------3|1-------|

I hope it will good now. Enjoy



Get this song at amazon.com      Ebay     Ringtones Ringtones  


Learn to play: Songwriting, Piano, Harmonica, Guitar
More Red Hot Chili Peppers lyrics available at Muzikum

Related Red Hot Chili Peppers Bass Tabs

Funky Flea Solo bass
Warlock bass
Instrumental No 1 bass
Theyre Red Hot bass
Mellowship In Slinky B Major bass
What Is Soul bass
Mellowship Slinky In B Flat bass
Hollywood bass
Other side bass
Mellowship Slinky In Bminor bass
Jungle Man bass
Make You Feel Better bass
Otherside bass
On Murcury bass
Backwoods bass
Off The Map Around The World bass
Under The Bridge (guitar Intro For Bass) bass
Love Rollercoaster bass
Off The Map Jams bass
Hump De Bump bass


Guitar Tabs









All tabs are property and copyright of their owners. All tabs provided for educational purposes only. Privacy Policy, DMCA