Red Hot Chili Peppers

Dont Forget Me Live Tabs



More from Red Hot Chili Peppers

Red Hot Chili Peppers Tabs
Red Hot Chili Peppers Chords
Red Hot Chili Peppers Bass
Red Hot Chili Peppers Lyrics

e|-0-0-0-0-0-0-0-0-0-0-0-0-0-0-0-0-0-0-0-0-0-0-0-0-|
B|-------------------------------------------------|
G|-------------------------------------------------|
D|-------------------------------------------------|
A|-------------------------------------------------|
E|-------------------------------------------------|
veres
e|---5h8-5h8-5h8-5h8-5h8-5h8-5h8-5h8-----3p0-3p0-3p0-3p0-3p0-3p0-3p0-3p0----|
B|--------------------------------------------------------------------------|
G|--------------------------------------------------------------------------|x2
D|--------------------------------------------------------------------------|
A|--------------------------------------------------------------------------|
E|--------------------------------------------------------------------------|
chorus
e|---555555--555555--555555--555555-----------|
B|--------------------------------------------|
G|---222222----------555555-------------------|
D|---222222--333333--555555--555555-----------|
A|-----------333333----------555555-----------|
E|--------------------------------------------|
e|---181717171717171717171717171717----------|
B|---181717171717171717171717171717----------|
G|---161515151515151515151515151515----------|
D|--------------------------------------------|
A|--------------------------------------------|
E|--------------------------------------------|
solo 1
e|-------------------------------------------------------------------------|
B|---------13-13-17~~~~~17b(20)---------13-13-17-13-12-13-15/17-15-12------|
G|--14-14-14--------------------14-14-14-----------------------------------|
D|-------------------------------------------------------------------------|
A|-------------------------------------------------------------------------|
E|-------------------------------------------------------------------------|
e|--------------------------------------|
B|--12h13-12h13-12h13-12h13------------|
G|--------------------------------------|
D|--------------------------------------|
A|--------------------------------------|
E|--------------------------------------|
solo 2
e|--3p0-3p0-5-3-0-5-3-0-0--0-5-3-0-5-3-0-0-5-3-0-5-3-0-0--0-5-3-0----|
B|-------------------------------------------------------------------|
G|-------------------------------------------------------------------|
D|-------------------------------------------------------------------|
A|-------------------------------------------------------------------|
E|-------------------------------------------------------------------|
e|--7b(8)-8-8-7-5/12-12p17-12-12p17-12-12p17-12-12p17-12-12p17-15-15-17-15-|
B|-------------------------------------------------------------------------|
G|-------------------------------------------------------------------------|
D|-------------------------------------------------------------------------|
A|-------------------------------------------------------------------------|
E|-------------------------------------------------------------------------|
e|--17b19-17-17-17-15---17-15---17-15---17-15---17-15-----------15-------|
B|-------------------17------17------17------17------17-13-15h17--17-15--|
G|-----------------------------------------------------------------------|
D|-----------------------------------------------------------------------|
A|-----------------------------------------------------------------------|
E|-----------------------------------------------------------------------|
e|-----------------------------------|
B|-12h13p1213h12p13h12p1310-------|
G|-----------------------------------|
D|-----------------------------------|
A|-----------------------------------|
E|-----------------------------------|
outro
e|--8-5-5-8-8-5-5-8-/-12----12----12-----12----12----12---|
B|-----8-------8--------13----13----13-----13----13----13-|
G|------------------------14----14-----------12----12-----|
D|--------------------------------------------------------|
A|--------------------------------------------------------|
E|--------------------------------------------------------|
e|----10----10----10----12----12----12-----------------15-12--15-12--12---|
B|------12----12----12----13----13----13--13---13---13------13-----13--13-|
G|--------12----12----------14----14--------14---14---14------------------|
D|--------------------------------------------15---15---------------------|
A|------------------------------------------------------------------------|
E|------------------------------------------------------------------------|
e|------------------------------------------------------------------|
B|--15-13---15-13--15-13---15-13-----17b(18)---17----17-----17------|
G|-------12------12-----12------12---------------17----17-----------|
D|-------------------------------------------------17----17---------|
A|------------------------------------------------------------------|
E|------------------------------------------------------------------|
e|---15-13-12-15-17p15h17-12-17-15-13-12-13p12-10-8-10b11-10-8-7-8-10b11-10--|
B|---------------------------------------------------------------------------|
G|---------------------------------------------------------------------------|
D|---------------------------------------------------------------------------|
A|---------------------------------------------------------------------------|
E|---------------------------------------------------------------------------|
e|----8-7-8------------------------------------------------|
B|----------10-8-10--8-10--8-10---8-10b1210-8-------5------|
G|------------------9----9------9------------9-7-5-7-5-2/-|
D|---------------------------------------------------------|
A|---------------------------------------------------------|
E|---------------------------------------------------------|
song order
bass intro
the ooooooooooooooooo
vesre x2
the ooooooooooooooooo
chorus
solo 1
the ooooooooooooooooo
versex2
chorus
solo2
the ooooooooooooooooo
outro
| / slide up
| slide down
| h hammer-on
| p pull-off
| ~ vibrato
| + harmonic
| x Mute note
===============================================================================



Get this song at amazon.com      Ebay     Ringtones Ringtones  


Learn to play: Songwriting, Piano, Harmonica, Guitar
More Red Hot Chili Peppers lyrics available at Muzikum

Related Red Hot Chili Peppers Tabs

Save The Population (3) tabs
Dani California Guitar Tab tabs
Mommy Wheres Daddy Bass tabs
Teenager In Love (2) tabs
Desecration Smile Bass tabs
Stadium Arcadium - Jupiter tabs
Mercy Mercy tabs
Good Time Boys tabs
Ready Made tabs
We Believe tabs
Million Miles Of Water Bass tabs
Rivers Of Avalon tabs
This Velvet Glove (3) tabs
Intro tabs
Hey tabs
Around The World tabs
Warlocks Bass tabs
Subterranean Homesick Blues tabs
Salute To Kareem tabs
Shes Only 18 Bass tabs


Guitar Tabs









All tabs are property and copyright of their owners. All tabs provided for educational purposes only. Privacy Policy, DMCA