Red Hot Chili Peppers

Desecration Smile Bass Tabs



More from Red Hot Chili Peppers

Red Hot Chili Peppers Tabs
Red Hot Chili Peppers Chords
Red Hot Chili Peppers Bass
Red Hot Chili Peppers Lyrics




intro:
G|-13~---13--11--------13~---13--11------|
D|---------------14~----------------14~--|
A|---------------------------------------|
E|---------------------------------------|

intro verse:
G|-------9~-7-----------------------------9~-9-7------------------------------|
D|------9-----9-7------------------------9-------9-------12-------------------|
A|-7-7-7----------------------------7-7-7--------------------------10---------|
E|-----------------10--10-x-8-x8-10----------------10-10----8-8h10----10-8-10-|

verse:
G|-------9~-7-----------------------------9~-9-7--------------------------|
D|------9-----9-7------------------------9-------9-------12---------------|
A|-7-7-7----------------------------7-7-7-------------------------/10-----|
E|-----------------10--10-x-8-x8-10----------------10-10-----8-88-----8---|

G|-------9~-7-----------------------------9~-9-7--------------------------|
D|------9-----9-7------------------------9-------9-------12---------------|
A|-7-7-7----------------------------7-7-7----------------------10/12------|
E|-----------------10--10-x-8-x8-10----------------10-10----88--------10--|

G|-------9~-7-----------------------------9~-9-7-----------------------|
D|------9-----9-7------------------------9-------9-------12------------|
A|-7-7-7----------------------------7-7-7------------------------7/10--|
E|-----------------10--10-x-8-x8-10----------------10-10----8-88-------|

G|-------9~-7-----------------------------9~-9-7------------------------------|
D|------9-----9-7------------------------9-------9-------12-------------------|
A|-7-7-7----------------------------7-7-7---------------------------7-7-77-7--|
E|-----------------10--10-x-8-x8-10----------------10-10----8-88-10-----------|

chorus:
G|-------2-2----------------------------------------------------------|
D|-----------2-2-22-2--2------------2-2-22-2--2-----------------------|
A|-5-5-5-----------------5-5-5-00-0--------------5-5-5-0-0------------|
E|--------------------------------------------------------0-0-00-0--0-|

G|-----------------------|
D|-----------------------|
A|-5-5-55-5-5------------|
E|------------5-5-55-5-5-|

verese 2 intro
G|-------9~-7-----------------------------9~-9-7--------------------------|
D|------9-----9-7------------------------9-------9-------12------------12-|
A|-7-7-7----------------------------7-7-7-------------------------7/10----|
E|-----------------10--10-x-8-x8-10----------------10-10----8-8-8---------|

verse:
G|-------9~-7-----------------------------9~-9-7-----------------------------|
D|------9-----9-7------------------------9-------9-------12------------------|
A|-7-7-7----------------------------7-7-7---------------------------10-9-----|
E|-----------------10--10-x-8-x8-10----------------10-10----8-88-10------10--|

G|-------9~-7---------------------------------9~-9-7---------------------|
D|------9-----9-7----------------------------9-------9-------12----------|
A|-7-7-7-----------------------------10-7-7-7----------------------------|
E|-----------------10--10-x-8-x88h10-------------------10-10----8-88-10--|

G|-------9~-7-----------------------------9~-9-7-------------------------------|
D|------9-----9-7------------------------9-------9-------12--------------------|
A|-7-7-7----------------------------7-7-7---------------------------10---------|
E|-----------------10--10-x-8-x8-10----------------10-10----8-8-8h10---10-8h10-|

G|-------9~-7-----------------------------9~-9-7------------------------------|
D|------9-----9-7------------------------9-------9-------12-------------------|
A|-7-7-7----------------------------7-7-7---------------------------7-7-77-7--|
E|-----------------10--10-x-8-x8-10----------------10-10----8-88-10-----------|

chorus:
G|-------2-2----------9~--------------------------------------------------|
D|-----------2-2-/7h9---------------2-2-22-2--2---------------------------|
A|-5-5-5-----------------5-5-5-00-0--------------5-5-5-0-0----------------|
E|--------------------------------------------------------0-0-00/12-12-12-|

G|-----------------------|
D|-----------------------|
A|-5-5-55-5-5------------|
E|------------5-5-55-5-5-|

bridge: x6 with other variations
G|---------------12p10--------------|
D|---------------------12--9p5------|
A|-3-3-3-----------------------9p7--|
E|-------3-3-0----------------------|

verse 3 intro:
G|-------9~-7-----------------------------9~-9-7------------------------------|
D|------9-----9-7------------------------9-------9-------12-------------------|
A|-7-7-7----------------------------7-7-7-------------------------10/13-12-10-|
E|-----------------10--10-x-8-x8-10----------------10-10----8-8-8-------------|

verse:
G|-------9~-7-----------------------------9~-9-7-------------------------|
D|------9-----9-7------------------------9-------9-------12--------------|
A|-7-7-7----------------------------7-7-7-------------------------10-----|
E|-----------------10--10-x-8-x8-10----------------10-10----8-8-8----10--|

G|-------9~-7-----------------------------9~-9-7------------------------------|
D|------9-----9-7------------------------9-------9-------12-------------------|
A|-7-7-7----------------------------7-7-7---------------------------7-7-77-7--|
E|-----------------10--10-x-8-x8-10----------------10-10----8-88-10-----------|

chorus: x2
G|-------2-2----------------------------------------------------------|
D|-----------2-2-22-2--2------------2-2-22-2--2-----------------------|
A|-5-5-5-----------------5-5-5-00-0--------------5-5-5-0-0------------|
E|--------------------------------------------------------0-0-00-0--0-|

G|-----------------------|
D|-----------------------|
A|-5-5-55-5-5------------|
E|------------5-5-55-5-5-|

outro:
G|-13~---13--11----------1111h13-131313~/18-16-13\11-11--------|
D|---------------14~--14---------------------------------14-14~|
A|-------------------------------------------------------------|
E|-------------------------------------------------------------|

----end----



Get this song at amazon.com      Ebay     Ringtones Ringtones  


Learn to play: Songwriting, Piano, Harmonica, Guitar
Also available at Muzikum: Red Hot Chili Peppers - Desecration Smile lyrics

Related Red Hot Chili Peppers Bass Tabs

Scar Tissue......perfect bass
Give It Away (beginners Alternative) bass
Chili Peppers Blow bass
Lets Make Evil bass
Under The Bridge (guitar Intro For Bass) bass
American Ghost Dance bass
Super Ultra Rare Flea Bass Solo bass
Cmon Girl bass
Love Trilogy bass
I Like Dirt bass
Jungle Man Intro bass
Dont Forget Me bass
Under The Bridge bass
By The Way bass
Otherside ( Correct ) bass
Snow Hey Oh bass
Carbon bass
Give It Away bass
Higher Ground (stevie Wonder Cover) bass
One Of Fleas Funky Solos bass


Guitar Tabs









All tabs are property and copyright of their owners. All tabs provided for educational purposes only. Privacy Policy, DMCA

Online converter - videoconverter.com