Red Hot Chili Peppers

Desecration Smile (2) Tabs



More from Red Hot Chili Peppers

Red Hot Chili Peppers Tabs
Red Hot Chili Peppers Chords
Red Hot Chili Peppers Bass
Red Hot Chili Peppers Lyrics

Intro: 

e|----x-x-x-x-x-x-x-x-x-x-x----0-0-0-0-0-0-0-0-0-2-2-0-0-----|
B|----x-x-x-x-x-x-x-x-x-x-x----0-0-0-0-0-0-0-0-0-0-0-0-0-----|
G|----1-1-1-1-1-1-1-1-1-1-1----1-1-1-1-1-1-1-1-1-1-1-1-1-----|  x2
D|----2-2-2-2-2-2-2-2-2-2-2----2-2-2-2-2-2-2-2-2-2-2-2-2-----|
A|----4-4-4-4-4-4-4-4-4-4-4----2-2-2-2-2-2-2-2-2-2-2-2-2-----|
E|----4-4-4-4-4-4-4-4-4-4-4----0-0-0-0-0-0-0-0-0-0-0-0-0-----|


Verse: 

   Em          D       C               
e|--0-0-0-0-0---2-2-2---0-0-0------|
B|--0-0-0-0-0---3-3-3---1-1-1------|
G|--0-0-0-0-0---2-2-2---0-0-0------|x8
D|--2-2-2-2-2---0-0-0---2-2-2------|    Em to lead into Chorus
A|--2-2-2-2-2---0-0-0---3-3-3------| 
E|--0-0-0-0-0----------------------|


Chorus: 

        D       A     E                   
e|--2-2-2-2---0-0---0-0-0-0-0-0----|
B|--3-3-3-3---2-2---0-0-0-0-0-0----|
G|--2-2-2-2---2-2---1-1-1-1-1-1----|
D|--0-0-0-0---2-2---2-2-2-2-2-2----|
A|--0-0-0-0---0-0---2-2-2-2-2-2----|
E|------------------0-0-0-0-0-0----|


Bridge: 

    C                E
e|--0-0-0-0---0-0-0---0-0-0-0-0-0--|
B|--1-1-1-1---0-0-0---0-0-0-0-0-0--|
G|--0-0-0-0---1-1-1---1-1-1-1-1-1--|
D|--2-2-2-2---0-0-0---2-2-2-2-2-2--|
A|--3-3-3-3---2-2-2---2-2-2-2-2-2--|
E|------------3-3-3---0-0-0-0-0-0--|


Outro: 

e|----x-x-x-x-x-x-x-x-x-x-x----0-0-0-0-0-0-0-0-0-2-2-0-0-----|
B|----x-x-x-x-x-x-x-x-x-x-x----0-0-0-0-0-0-0-0-0-0-0-0-0-----|
G|----1-1-1-1-1-1-1-1-1-1-1----1-1-1-1-1-1-1-1-1-1-1-1-1-----|  x2
D|----2-2-2-2-2-2-2-2-2-2-2----2-2-2-2-2-2-2-2-2-2-2-2-2-----|
A|----4-4-4-4-4-4-4-4-4-4-4----2-2-2-2-2-2-2-2-2-2-2-2-2-----|
E|----4-4-4-4-4-4-4-4-4-4-4----0-0-0-0-0-0-0-0-0-0-0-0-0-----|

End on E with a strum


Lyrics:

All alone not by myself
Another Girl bad for my health
Ive seen it all thrue someone else
Another girl bad for my health

Celebrated but undisturbed
Serenaded by the terror bird
Its seldom seen but its never heard
Serenaded by the terror bird

Chorus:
Never in the wrong time or wrong place
Desecration is the smile on my face
The love i made is the shape of my space
My face, my face

Disintegrated by the rising sun
A rolling black out of oblivion
Like to think that im your #1
Im rolling black out of oblivion

I wanna leave but i just get stuck
A broken record running low on luck 
Theres heavy metal coming from your truck
A broken record running low on luck

Chorus

Bridge: 
We could all go down to malibu and make some noise
Coca Cola doesn't do the justice she enjoys
We could all come up with something new to be destroyed
We could all go down

I love the feeling when it falls apart 
Im slow to finnish but im quick to start
Beneath the heather lies a meadowlark
And im, slow to finnish but im quick to start

Chorus x2


Outro
Get this song at amazon.com      Ebay     Ringtones Ringtones  


Learn to play: Songwriting, Piano, Harmonica, Guitar
More Red Hot Chili Peppers lyrics available at Muzikum

Related Red Hot Chili Peppers Tabs

So Much I Bass tabs
Throw Away Your Television Bass tabs
F U tabs
Even You Brutus? tabs
Mercy Mercy tabs
Cmon Girl Bass tabs
21st Century Bass tabs
She Looks To Me Bass tabs
By The Way (Version 2) tabs
I Could Have Lied tabs
Lovercall tabs
Brothers Cup tabs
Roller coaster of love tabs
Yertle The Turtle tabs
By The Way tabs
Intro To Hyde Park (live) tabs
Get Up And Jump Intro tabs
Slane Castle Jam tabs
She Looks To Me tabs
I Could Die For You (3) tabs


Guitar Tabs









All tabs are property and copyright of their owners. All tabs provided for educational purposes only. Privacy Policy, DMCA