Red Hot Chili Peppers

Dani California Bass Tabs



More from Red Hot Chili Peppers

Red Hot Chili Peppers Tabs
Red Hot Chili Peppers Chords
Red Hot Chili Peppers Bass
Red Hot Chili Peppers Lyrics

(intro)
|-------------------7-----------|
|----7-------5-3-------5h7-5----|
|---------------5-5--5------7-5-|
|5-5---5-3-3--------------------|

|-------------------7-----------|
|----7-------5-3----------------|
|---------------5-5--5----5-777-|
|5-5---5-3-3-----------5h8------|

(verse)
|-------------------7-----------|
|----7-------5-3-------5h7-5----|
|---------------5-5--5------7-5-|
|5-5---5-3-3--------------------|

|-------------------7-----------|
|----7-------5-3----------7-----|
|---------------5-5--5-5h7----5-|
|5-5---5-3-3---------------5h8--|

|-------------------7----5------|
|----7-------5-3------5h7----5--|
|---------------5-5--5----5h7---|
|5-5---5-3-3--------------------|

|-------------------7-----------|
|----7-------5-3-------5h7-5----|
|---------------5-5--5------7-5-|
|5-5---5-3-3--------------------|

|-------------------7-----------|
|----7-------5-3-------5h7-5----|
|---------------5-5--5------7-5-|
|5-5---5-3-3--------------------|

|-------------------7-----------|
|----7-------5-3----------------|
|---------------5-5--5---5------|
|5-5---5-3-3----------5h8-5-8---|

|-------------------7-----------|
|----7-------5-3-------5h7-5----|
|---------------5-5--5------7-5-|
|5-5---5-3-3--------------------|

|-------------------------------|
|----7-------5-3----------------|
|---------------5--5-55-5--5-5--|
|5-5---5-3-3--------------------|

(chorus)
|-------------------------------|
|-------------------------------|
|-------3-3-3-0-3/5--5-55--5-5-5|
|1-1-1-1------------------------|

|-------------------------------|
|-------------------------------|
|-------3-3-3-0-3/5--5-55--5-5-5|
|1-1-1-1------------------------|

|-------------------------------|
|-------------------------------|
|-------3-3-3-0-3/5--5-55--5-5-5|
|1-1-1-1------------------------|

|-------------------------------|
|-------------------------------|
|-------3-3-3-0-3/5--5-55--5-5-5|
|1-1-1-1------------------------|

|--------------------|
|--------------------|
|5-55--5-5-5--5-5-5-5|
|--------------------|

(outro)
|-------------------7-----------|
|----7-------5-3-------5h7-5----|
|---------------5-5--5------7-5-|
|5-5---5-3-3--------------------|

|-------------------7-----------|
|----7-------5-3----------------|
|---------------5-5--5---5-777--|
|5-5---5-3-3----------5h8-------|

(verse)
|-------------------7-----------|
|----7-------5-3-------5h7-5----|
|---------------5-5--5------7-5-|
|5-5---5-3-3--------------------|

|-------------------7-----------|
|----7-------5-3----------5-----|
|---------------5-5--5-5h7----5-|
|5-5---5-3-3---------------5h8--|

|-------------------7-----------|
|----7-------5-3-------5h7-5----|
|---------------5-5--5------7-5-|
|5-5---5-3-3--------------------|

|-------------------------------|
|----7-------5-3----------------|
|---------------5--5-55-5--5-5--|
|5-5---5-3-3--------------------|

(chorus)
|-------------------------------|
|-------------------------------|
|-------3-3-3-0-3/5--5-55--5-5-5|
|1-1-1-1------------------------|

|-------------------------------|
|-------------------------------|
|-------3-3-3-0-3/5--5-55--5-5-5|
|1-1-1-1------------------------|

|-------------------------------|
|-------------------------------|
|-------3-3-3-0-3/5--5-55--5-5-5|
|1-1-1-1------------------------|

|-------------------------------|
|-------------------------------|
|-------3-3-3-0-3/5--5-55--5-5-5|
|1-1-1-1------------------------|

|--------------------|
|--------------------|
|5-55--5-5-5--5-5-5-5|
|--------------------|

(bridge)
|-------------------------------|
|-------------9-----------------|
|------9----9---99-9-9p7-7-7-7p5|
|7-7-7--7--7-7------------------|

|-------------------------------|
|-------------9-----------------|
|------9----9---99-9-9p7-7-7-7p5|
|7-7-7--7--7-7------------------|

|-------------------------------|
|-------------9-----------------|
|------9----9---99-9-9p7-7-7-7p5|
|7-7-7--7--7-7------------------|

|-------------------------------|
|-------------------------------|
|----7--------------------------|
|7-5---52----------------------|

(verse)
|-------------------7-----------|
|----7-------5-3-------5h7-5----|
|---------------5-5--5------7-5-|
|5-5---5-3-3--------------------|

|-------------------7----5------|
|----7-------5-3------5h7--7-5--|
|---------------5-5--5--------7-|
|5-5---5-3-3--------------------|

|-------------------7-----------|
|----7-------5-3-------5h7-5----|
|---------------5-5--5------7-5-|
|5-5---5-3-3--------------------|

|-------------------------------|
|----7-------5-3----------------|
|---------------5--5--5-55-5-5--|
|5-5---5-3-3--------------------|

|7-7-7-7-7-7-7-7-7-7-7-7-7-7-7-7|
|-------------------------------|
|-------------------------------|
|-------------------------------|
(chorus)
|-------------------------------|
|-------------------------------|
|-------3-3-3-0-3/5--5-55--5-5-5|
|1-1-1-1------------------------|

|-------------------------------|
|-------------------------------|
|-------3-3-3-0-3/5--5-55--5-5-5|
|1-1-1-1------------------------|

|-------------------------------|
|-------------------------------|
|-------3-3-3-0-3/5--5-55--5-5-5|
|1-1-1-1------------------------|

|-------------------------------|
|-------------------------------|
|-------3-3-3-0-3/5--5-55--5-5-5|
|1-1-1-1------------------------|

|--------------------|
|--------------------|
|5-55--5-5-5--5-5-5-5|
|--------------------|

|-------------------------------|
|-------------------------------|
|-------3-3-3-0-3/5--5-55--5-5-5|
|1-1-1-1------------------------|

|-------------------------------|
|-------------------------------|
|-------3-3-3-0-3/5--5-55--5-5-5|
|1-1-1-1------------------------|

|-------------------------------|
|-------------------------------|
|-------3-3-3-0-3/5--5-55--5-5-5|
|1-1-1-1------------------------|

|-------------------------------|
|-------------------------------|
|-------3-3-3-0-3/5--5-55--5-5-5|
|1-1-1-1------------------------|

|--------------------|
|--------------------|
|5-55--5-5-5--5-5-5-5|
|--------------------|

(solo)
|------------------------------|
|------------------------------|
|------33---5-5----5-5--5------|
|1-1---------------------------|

|------------------------------|
|------------------------------|
|------33---5-5----5-5--5------|
|1-1----------------------33---|

|------------------------------|
|------------------------------|
|------33---5-5----5-5--5------|
|1-1---------------------------|

|------------------------------|
|------------------------------|
|------33---5-5----5-5--5------|
|1-1---------------------------|

|-----------------|
|---------75-75-75|
|55-5-5-57--5--5--|
|-----------------|

|------------------------------|
|------------------------------|
|------33---5-5----5-5--5------|
|1-1---------------------------|

|------------------------------|
|------------------------------|
|------33---5-5----5-5--5------|
|1-1----------------------33---|

|------------------------------|
|--------------------5-5h7-5---|
|------33---5-5--5----------7-5|
|1-1---------------------------|

|------------------2-3-4-5-5-5-|
|------------2-3-4------------0|
|------012333-3-3-3-3-3-3-3----|
|111111------------------------|

by Alex

enjoy it
Get this song at amazon.com      Ebay     Ringtones Ringtones  


Learn to play: Songwriting, Piano, Harmonica, Guitar
Also available at Muzikum: Red Hot Chili Peppers - Dani California lyrics

Related Red Hot Chili Peppers Bass Tabs

Especially In Michigan bass
Warlock bass
Backwoods3 bass
Transcending bass
Under The Bridge Guitar Intro On Bass bass
Wet Sand (complete) bass
Warm Tape bass
If bass
Simple Nice bass
Johnny Kick Hole In The Sky bass
Roller Coaster bass
Green Heaven bass
Parallel Universe bass
By The Way::::::101% Correct, No Questions Asked bass
I Could Die For You bass
One Big Mob bass
Other side bass
Dani Califoina bass
Mellowship Slinky In B Major bass
True Men Don't Kill Coyotes bass


Guitar Tabs









All tabs are property and copyright of their owners. All tabs provided for educational purposes only. Privacy Policy, DMCA