Red Hot Chili Peppers

Dani California Solo Tabs



More from Red Hot Chili Peppers

Red Hot Chili Peppers Tabs
Red Hot Chili Peppers Chords
Red Hot Chili Peppers Bass
Red Hot Chili Peppers Lyrics




here is tyhe solo its easy to play... and it sounds wicked on a
phaser...


Tuning; EADGBE


|--------------------------------------------------------|
B|--------------------------------------------------------|
G|-------10-----------------------------------------------|
D|----10----12~-------------------------------------------|
A|-12------------10p8-10p8-10p8-10p8--------------------5-|
E|------------------------------------10-10\---3--1-3-1---|

E|-----------------------------------------------|
B|---------------------------------------13-15~/-|
G|-------10---------------------------14---------|
D|----10----12----10----10----10-12~-------------|
A|-12----------12----12----12--------------------|
E|-----------------------------------------------|

E|--------------------------------------------------------|
B|--------------------------------------------------------|
G|-------10-----------------------------------------------|
D|----10----12~-------------------------------------------|
A|-12------------10p8-10p8-10p8-10p8--------------------5-|
E|------------------------------------10-10\---3--1-3-1---|

E|-----------------------------------------------|
B|---------------------------------------13-15~/-|
G|-------10---------------------------14---------|
D|----10----12----10----10----10-12~-------------|
A|-12----------12----12----12--------------------|
E|-----------------------------------------------|

E----------------------------------------------------------|
B------13----15-13----15-13----15-13----15-13----15-13-----|
G---14----14-------14-------14-------14-------14-------14--|
D----------------------------------------------------------|
A----------------------------------------------------------|
E----------------------------------------------------------|

E|----------------------------------------------------------|
B|----------------------------------------------------------|
G|------10--------------------------------------------------|
D|---10----12~----10----10----10----------------10----------|
A|-12----------12----12----12----10-8--------12----10-8-----|
E|-------------------------------------10-10-------------10-|

E|------------------------------------------------|
B|---------------------------------------13-15b~/-|
G|-------10---------------------------14----------|
D|----10----12----10----10----10-12b~-------------|
A|-12----------12----12----12---------------------|
E|------------------------------------------------|

E|--------------------------------------------------------|
B|--------------------------------------------------------|
G|-------10-----------------------------------------------|
D|----10----12~-------------------------------------------|
A|-12------------10p8-10p8-10p8-10p8--------------------5-|
E|------------------------------------10-10\---3--1-3-1---|

E|----------------------------------------------| \
B|----10h13p10---10h13p10---10h13p10---10h13p10-| |
G|-b12--------b12--------b12--------b12---------| x8 |
D|----------------------------------------------| |
A|----------------------------------------------| |
E|----------------------------------------------| |
|
e|-13h15-15-13h15-15-13h15-15-13h15-15-| |
B|-------------------------------------| | - use phaser for
G|-------------------------------------| x4 | these parts.
D|-------------------------------------| | Up until break
A|-------------------------------------| | shown below.
E|-------------------------------------| |
/
e|------13-----------------------------------------|-------------|
B|-13h15--15-13-----10h13p10---10h13p10------------|-------------|
G|---------------b12--------b12--------b12~~p10----|-------------|
D|----------------------------------------------12~|--*tremelo*--|
A|-------------------------------------------------|-------------|
E|-------------------------------------------------|-------------|

there ya go ladies and gentlemen



Get this song at amazon.com      Ebay     Ringtones Ringtones  


Learn to play: Songwriting, Piano, Harmonica, Guitar
More Red Hot Chili Peppers lyrics available at Muzikum

Related Red Hot Chili Peppers Tabs

Give It Away Bass tabs
Mommy Wheres Daddy Bass tabs
Suck My Kiss tabs
Warlocks tabs
Cabron tabs
Aeroplane tabs
Why Dont You Love Me tabs
Otherside Giutar Tab tabs
The Handclapping Song Live tabs
Hey Bass tabs
Buckle Down tabs
Quixoticelixir Bass tabs
Rivers Of Avalon (2) tabs
Desecration Smile tabs
No Chump Love Sucker tabs
Hump The Bump tabs
Under The Bridge Totally Correct tabs
Mellowship Slinky In B Major tabs
Gong Li tabs
Single-note Funk tabs


Guitar Tabs









All tabs are property and copyright of their owners. All tabs provided for educational purposes only. Privacy Policy, DMCA