Red Hot Chili Peppers

Dani California Solo Tab Tabs



More from Red Hot Chili Peppers

Red Hot Chili Peppers Tabs
Red Hot Chili Peppers Chords
Red Hot Chili Peppers Bass
Red Hot Chili Peppers Lyrics




E|--------------------------------------------------------|
B|--------------------------------------------------------|
G|-------10-----------------------------------------------|
D|----10----12~-------------------------------------------|
A|-12------------10p8-10p8-10p8-10p8--------------------5-|
E|------------------------------------10-10\---3--1-3-1---|

E|-----------------------------------------------|
B|---------------------------------------13-15~/-|
G|-------10---------------------------14---------|
D|----10----12----10----10----10-12~-------------|
A|-12----------12----12----12--------------------|
E|-----------------------------------------------|

E|--------------------------------------------------------|
B|--------------------------------------------------------|
G|-------10-----------------------------------------------|
D|----10----12~-------------------------------------------|
A|-12------------10p8-10p8-10p8-10p8--------------------5-|
E|------------------------------------10-10\---3--1-3-1---|

E|-----------------------------------------------|
B|---------------------------------------13-15~/-|
G|-------10---------------------------14---------|
D|----10----12----10----10----10-12~-------------|
A|-12----------12----12----12--------------------|
E|-----------------------------------------------|

E----------------------------------------------------------|
B------13----15-13----15-13----15-13----15-13----15-13-----|
G---14----14-------14-------14-------14-------14-------14--|
D----------------------------------------------------------|
A----------------------------------------------------------|
E----------------------------------------------------------|

E|----------------------------------------------------------|
B|----------------------------------------------------------|
G|------10--------------------------------------------------|
D|---10----12~----10----10----10----------------10----------|
A|-12----------12----12----12----10-8--------12----10-8-----|
E|-------------------------------------10-10-------------10-|

E|------------------------------------------------|
B|---------------------------------------13-15b~/-|
G|-------10---------------------------14----------|
D|----10----12----10----10----10-12b~-------------|
A|-12----------12----12----12---------------------|
E|------------------------------------------------|

E|--------------------------------------------------------|
B|--------------------------------------------------------|
G|-------10-----------------------------------------------|
D|----10----12~-------------------------------------------|
A|-12------------10p8-10p8-10p8-10p8--------------------5-|
E|------------------------------------10-10\---3--1-3-1---|

E|----------------------------------------------| \
B|----10h13p10---10h13p10---10h13p10---10h13p10-| |
G|-b12--------b12--------b12--------b12---------| x8 |
D|----------------------------------------------| |
A|----------------------------------------------| |
E|----------------------------------------------| |
|
e|-13h15-15-13h15-15-13h15-15-13h15-15-| |
B|-------------------------------------| | - use phaser for
G|-------------------------------------| x4 | these parts.
D|-------------------------------------| | Up until break
A|-------------------------------------| | shown below.
E|-------------------------------------| |
/
e|------13-----------------------------------------|-------------|
B|-13h15--15-13-----10h13p10---10h13p10------------|-------------|
G|---------------b12--------b12--------b12~~p10----|-------------|
D|----------------------------------------------12~|--*tremelo*--|
A|-------------------------------------------------|-------------|
E|-------------------------------------------------|-------------|


ALTERNATE VERSION

E|------------------------------------------|
B|-----6------------------------------------|
G|---5---7~---------------------------------|
D|-7---------5--5--5---5--------------------|
A|-------------8--8-------8-5-5\----------5-|
E|-------------------------------3--1-3-1---|

E|--------------------------------------|
B|-----6------------------------13-15~/-|
G|---5---7~---5---5---5-7~---14---------|
D|-7--------7---7---7-------------------|
A|--------------------------------------|
E|--------------------------------------|

E|------------------------------------------|
B|-----6------------------------------------|
G|---5---7~---------------------------------|
D|-7---------5--5--5---5--------------------|
A|-------------8--8-------8-5-5\----------5-|
E|-------------------------------3--1-3-1---|

E|--------------------------------------
B|-----6------------------------13-15~--
G|---5---7~---5---5---5-7~---14---------
D|-7--------7---7---7-------------------
A|--------------------------------------
E|--------------------------------------

E---------------------------------------------------------------|
B------13-15-13----15-13----15-13----15-13----15-13----15-13----|
G---14----------14-------14-------14-------14-------14-------14-|
D---------------------------------------------------------------|
A---------------------------------------------------------------|
E---------------------------------------------------------------|

E|------------------------------------------|
B|-----6------------------------------------|
G|---5---7~----5---5---5------------5-------|
D|-7---------7---7---7---5--------7---5-----|
A|--------------------------8-5-5-------8-5-|
E|------------------------------------------|

E|-------------------------------------------|
B|-----6-------------------------13-15b16b15-|
G|---5---7~---5---5---5-7b----14-------------|
D|-7--------7---7---7------------------------|
A|-------------------------------------------|
E|-------------------------------------------|

E|------------------------------------------|
B|-----6------------------------------------|
G|---5---7~---------------------------------|
D|-7---------5--5--5---5--------------------|
A|-------------8--8-------8-5-5\----------5-|
E|-------------------------------3--1-3-1---|

E|----------------------------------------------| \
B|----10h13p10---10h13p10---10h13p10---10h13p10-| |
G|-b12--------b12--------b12--------b12---------| x8 |
D|----------------------------------------------| |
A|----------------------------------------------| |
E|----------------------------------------------| |
|
e|-13h15-15-13h15-15-13h15-15-13h15-15-| |
B|-------------------------------------| | - use phaser for
G|-------------------------------------| x4 | these parts.
D|-------------------------------------| | Up until break
A|-------------------------------------| | shown below.
E|-------------------------------------| |
/
e|------13-----------------------------------------|-------------|
B|-13h15--15-13-----10h13p10---10h13p10------------|-------------|
G|---------------b12--------b12--------b12~~p10----|-------------|
D|----------------------------------------------12~|--*tremelo*--|
A|-------------------------------------------------|-------------|
E|-------------------------------------------------|-------------|



Get this song at amazon.com      Ebay     Ringtones Ringtones  


Learn to play: Songwriting, Piano, Harmonica, Guitar
More Red Hot Chili Peppers lyrics available at Muzikum

Related Red Hot Chili Peppers Tabs

Ill Be Your Domino tabs
Walkin On Down The Road tabs
Sikamikahingo tabs
Maybe tabs
Wet Sand tabs
Venice Queen (3) tabs
If You Want Me To Stay tabs
Can't Stop 2.0 + Lyrics tabs
Death Of A Martian tabs
Shes Only 18 tabs
Subterranean Homesick Blues (solo) tabs
Zephyr Song Solo tabs
Eskimo tabs
Teatro Jam tabs
Desecration Smile tabs
Rolling Sly Stone Live tabs
Intro To Hyde Park (live) tabs
Brandy Live tabs
The Brothers Cup tabs
Love Rollercoaster tabs


Guitar Tabs









All tabs are property and copyright of their owners. All tabs provided for educational purposes only. Privacy Policy, DMCA