Red Hot Chili Peppers

Dani California Bass Tab (formatted For Guitar Pro) Bass Tabs



More from Red Hot Chili Peppers

Red Hot Chili Peppers Tabs
Red Hot Chili Peppers Chords
Red Hot Chili Peppers Bass
Red Hot Chili Peppers Lyrics




Flea
Q Q Q Q Q Q Q Q Q
G||-------|----------------------|----------------------|
D||-------|----------------------|----------------------|
A||-------|----------------------|----------------------|
E||-------|----------------------|----------------------|


E E E. S E E E E E E E. S S S E E E
--------------------------|--------7-------------------|
--------7-----------5--3--|--------------5h-7-5--------|
------------x-------------|--5--5------x---------7--5--|
--5--5--------3--3--------|----------------------------|


> > > > > >
E E E. S E E E E E E E. S S S S S S E.
--------------------------|--------7-------------------|
--------7-----------5--3--|----------------------------|
------------x-------------|--5--5------x---------3-5---|
--5--5--------3--3--------|--------------5-3-4-5-------|


E E E. S E E E E E E E. S S S E E E
--------------------------|--------7-------------------|
--------7-----------5--3--|--------------5h-7-5--------|
------------x-------------|--5--5------x---------7--5--|
--5--5--------3--3--------|----------------------------|


E E E. S E E E E E E E. S S S S S S E.
--------------------------|--------7-------------------|
--------7-----------5--3--|------------------5---------|
------------x-------------|--5--5------x-5-7---7-5-3---|
--5--5--------3--3--------|----------------------------|


E E E. S E E E E E E E. S S S S S S E.
--------------------------|--------7----------5----------|
--------7-----------5--3--|--------------5h-7--------5---|
------------x-------------|--5--5------x--------5h-7-----|
--5--5--------3--3--------|------------------------------|


E E E. S E E E E E E E. S S S E E E
--------------------------|--------7--------------------|
--------7-----------5--3--|--------------5h-7p-5--------|
------------x-------------|--5--5------x----------7--3--|
--5--5--------3--3--------|-----------------------------|


E E E. S E E E E E E E. S S S E E E
--------------------------|--------7-------------------|
--------7-----------5--3--|--------------5h-7-5--------|
------------x-------------|--5--5------x---------7--5--|
--5--5--------3--3--------|----------------------------|


E E E. S E E E E E E E. S T T S S S S E.
--------------------------|--------7-----------------------|
--------7-----------5--3--|--------------7S-8S-7-----5-----|
------------x-------------|--5--5------x---------5-7---5---|
--5--5--------3--3--------|--------------------------------|


E E E. S E E E E E E E. S S S E E E
--------------------------|--------7-------------------|
--------7-----------5--3--|--------------5h-7-5--------|
------------x-------------|--5--5------x---------7--5--|
--5--5--------3--3--------|----------------------------|


E E E. S E E E S. T E E E E E E E E
-----------------------------|--------------------------|
--------7-----------5--3-----|--------------------------|
------------x-------------3s-|--5--5--5--5--5--5--5--5--|
--5--5--------3--3-----------|--------------------------|


> > > > > > > > >
E E E E E E E E Q E S E S E S S E
--------------------------|---------------------------|
--------------------------|---------------------------|
--5--5--5--5--5--5--5--5--|---------------3-3--3-3-3--|
--------------------------|--1----1--1-1--------------|


> > > > > > > > > > > > >
> > > > > >
S S E E S E S E E E Q E S E S E S S E
-----------------------------|---------------------------|
-----------------------------|---------------------------|
--3S-5-5--5--5-5-------------|---------------3-3--3-3-3--|
------------------3-3--3--3--|--1----1--1-1--------------|


> > > > > > > > > > > > >
> > > > > >
S S E E S E S E E E Q E S E S E S S E
-----------------------------|---------------------------|
-----------------------------|---------------------------|
--3S-5-5--5--5-5-------------|---------------3-3--3-3-3--|
------------------3-3--3--3--|--1----1--1-1--------------|


> > > > > > > > > > > > >
> > > > > >
S S E E S E S E E E Q E S E S E S S E
-----------------------------|---------------------------|
-----------------------------|---------------------------|
--3S-5-5--5--5-5-------------|---------------3-3--3-3-3--|
------------------3-3--3--3--|--1----1--1-1--------------|


> > > > > > > > > > > > >
> >
S S E E S E S E E S S S S E E S E S E E S S
------------------------------|-----------------------------|
------------------------------|-----------------------------|
--3S-5-5--5--x-5--5-5--x--x-5-|--L-5-5--x--x-5--5-5--x----x-|
------------------------------|-----------------------------|


E E E. S E E E E E E E. S S S E E E
--------------------------|--------7-------------------|
--------7-----------5--3--|--------------5h-7-5--------|
------------x-------------|--5--5------x---------7--5--|
--5--5--------3--3--------|----------------------------|


E E E. S E E E E E E E. S S S S S S E.
--------------------------|--------7---------------------|
--------7-----------5--3--|------------------------------|
------------x-------------|--5--5------x-3-4-5S-7S-5-3---|
--5--5--------3--3--------|------------------------------|


E E E. S E E E E E E E. S S S E E E
--------------------------|--------7-------------------|
--------7-----------5--3--|--------------5h-7-5--------|
------------x-------------|--5--5------x---------7--5--|
--5--5--------3--3--------|----------------------------|


E E E. S E E E E E E E. S S S S S S S E
--------------------------|--------7----------------------|
--------7-----------5--3--|-------------------3-----------|
------------x-------------|--5--5------x-5h-7---5-3-5S-3--|
--5--5--------3--3--------|-------------------------------|


E E E. S E E E E E E E. S S S E E E
--------------------------|--------7-------------------|
--------7-----------5--3--|--------------5h-7-5--------|
------------x-------------|--5--5------x---------7--5--|
--5--5--------3--3--------|----------------------------|


E E E. S E E E S. T E E E E E E E E
-----------------------------|--------------------------|
--------7-----------5--3-----|--------------------------|
------------x-------------3s-|--5--5--5--5--5--5--5--5--|
--5--5--------3--3-----------|--------------------------|


> > > > > > > > >
E E E E E E E E Q E S E S E S S E
--------------------------|---------------------------|
--------------------------|---------------------------|
--5--5--5--5--5--5--5--5--|---------------3-3--3-3-3--|
--------------------------|--1----1--1-1--------------|


> > > > > > > > > > > > >
> > > > > >
S S E E S E S E E E Q E S E S E S S E
-----------------------------|---------------------------|
-----------------------------|---------------------------|
--3S-5-5--5--5-5-------------|---------------3-3--3-3-3--|
------------------3-3--3--3--|--1----1--1-1--------------|


> > > > > > > > > > > > >
> > > > > >
S S E E S E S E E E Q E S E S E S S E
-----------------------------|---------------------------|
-----------------------------|---------------------------|
--3S-5-5--5--5-5-------------|---------------3-3--3-3-3--|
------------------3-3--3--3--|--1----1--1-1--------------|


> > > > > > > > > > > > >
> > > > > >
S S E E S E S E E E Q E S E S E S S E
-----------------------------|---------------------------|
-----------------------------|---------------------------|
--3S-5-5--5--5-5-------------|---------------3-3--3-3-3--|
------------------3-3--3--3--|--1----1--1-1--------------|


> > > > > > > > > > > > >
> >
S S E E S E S E E S S S S E E S E S E E S S
------------------------------|-----------------------------|
------------------------------|-----------------------------|
--3S-5-5--5--x-5--5-5--x--x-5-|--L-5-5--x--x-5--5-5--x------|
------------------------------|-----------------------------|


E E E. S E E E E E E E. E. E. E.
--------------------------|---------------------------|
--------9---7-9--9--7--9--|---------------------------|
--------------------------|--10--10--10---9---7---5---|
--7--7--------------------|---------------------------|


E E E. S E E E E E E E. E. E. E.
--------------------------|---------------------------|
--------9---7-9--9--7--9--|---------------------------|
--------------------------|--10--10--10---9---7---5---|
--7--7--------------------|---------------------------|


E E E. S E E E E E E E. E. E. E.
--------------------------|---------------------------|
--------9---7-9--9--7--9--|---------------------------|
--------------------------|--10--10--10---9---7---5---|
--7--7--------------------|---------------------------|


E E E. S E E E. S E E E E E E E E
--------------------------|-----------------7--9-----|
--------9-----------9-----|--9--9--9--9--9--------7--|
------------9-----------9-|--------------------------|
--7--7--------7--7--------|--------------------------|


E E E. S E E E E E E E. S S S E E E
--------------------------|--------7-------------------|
--------7-----------5--3--|--------------5h-7-5--------|
------------x-------------|--5--5------x---------7--5--|
--5--5--------3--3--------|----------------------------|


E E E. S E E E E E E E. S S S E S S E
--------------------------|--------7---------------------------|
--------7-----------5--3--|---------------------12b--10--------|
------------x-------------|--5--5------x-10h-12---------12-10--|
--5--5--------3--3--------|------------------------------------|


E E E. S E E E E E E E. S S S E S S E
--------------------------|--------7---------------------|
--------7-----------5--3--|--------------5h-7-5----------|
------------x-------------|--5--5------x---------5h-7-5--|
--5--5--------3--3--------|------------------------------|


E E E. S E E E S. T E E E E E E E E
-----------------------------|--------------------------|
--------7-----------5--3-----|--------------------------|
------------x-------------3s-|--5--5--5--5--5--5--5--5--|
--5--5--------3--3-----------|--------------------------|


E E E E E E E E E E E E E E E E
--------------------------|--------------------------|
--------------------------|--------------------------|
--5--5--5--5--5--5--5--5--|--7--7--7--7--7--7--7--7--|
--------------------------|--------------------------|


> > > > > > > > >
E E E E E E E E Q E S E S E S S E
--------------------------|---------------------------|
--------------------------|---------------------------|
--------------------------|---------------3-3--3-3-3--|
--0--0--0--0--0--0--0--0--|--1----1--1-1--------------|


> > > > > > > > > > > > >
> > > > > >
S S E E S E S E E E Q E S E S E S S E
-----------------------------|---------------------------|
-----------------------------|---------------------------|
--3S-5-5--5--5-5-------------|---------------3-3--3-3-3--|
------------------3-3--3--3--|--1----1--1-1--------------|


> > > > > > > > > > > > >
> > > > > >
S S E E S E S E E E Q E S E S E S S E
-----------------------------|---------------------------|
-----------------------------|---------------------------|
--3S-5-5--5--5-5-------------|---------------3-3--3-3-3--|
------------------3-3--3--3--|--1----1--1-1--------------|


> > > > > > > > > > > > >
> > > > > >
S S E E S E S E E E Q E S E S E S S E
-----------------------------|---------------------------|
-----------------------------|---------------------------|
--3S-5-5--5--5-5-------------|---------------3-3--3-3-3--|
------------------3-3--3--3--|--1----1--1-1--------------|


> > > > > > > > > > > > >
> >
S S E E S E S E E S S S S E E S E S E Q
------------------------------|-----------------------------|
------------------------------|----------------------12S----|
--3S-5-5--5--x-5--5-5--x--x-5-|--L-5-5--x--x-5--5-5---x-----|
------------------------------|-----------------------------|


> > > > > > > > > > > > >
> > > > > >
Q E S E S E S S E S S E E S E S E E E
---------------------------|-----------------------------|
---------------------------|-----------------------------|
---------------3-3--3-3-3--|--3S-5-5--5--5-5-------------|
--1----1--1-1--------------|------------------3-3--3--3--|


> > > > > > > > > > > > >
> > > > > >
Q E S E S E S S E S S E E S E S E E E
---------------------------|-----------------------------|
---------------------------|-----------------------------|
---------------3-3--3-3-3--|--3S-5-5--5--5-5-------------|
--1----1--1-1--------------|------------------3-3--3--3--|


> > > > > > > > > > > > >
> > > > > >
Q E S E S E S S E S S E E S E S E E E
---------------------------|-----------------------------|
---------------------------|-----------------------------|
---------------3-3--3-3-3--|--3S-5-5--5--5-5-------------|
--1----1--1-1--------------|------------------3-3--3--3--|


> > > > > > > > > > > > >
> > > > > >
Q E S E S E S S E S S E E S E S E E S S
---------------------------|------------------------------|
---------------------------|------------------------------|
---------------3-3--3-3-3--|--3S-5-5--5--x-5----5--x--x-5-|
--1----1--1-1--------------|------------------------------|


> > > > > > > > > > > > >
>
S S E E S E S E E S S Q E S E S E S S E
-----------------------------|---------------------------|
-----------------------------|---------------------------|
--L---5--x--x-5----5--x------|---------------3-3--3-3-3--|
-----------------------------|--1----1--1-1--------------|


> > > > > > > > > > > > >
> > > > > >
S S E E S E S E E E Q E S E S E S S E
-----------------------------|---------------------------|
-----------------------------|---------------------------|
--3S-5-5--5--5-5-------------|---------------3-3--3-3-3--|
------------------3-3--3--3--|--1----1--1-1--------------|


> > > > > > > > > > > > >
> > > > > >
S S E E S E S E E E Q E S E S E S S E
-----------------------------|---------------------------|
-----------------------------|---------------------------|
--3S-5-5--5--5-5-------------|---------------3-3--3-3-3--|
------------------3-3--3--3--|--1----1--1-1--------------|


> > > > > > > > > > > > >
> > > > > >
S S E E S E S E E E Q E S E S E S S E
-----------------------------|---------------------------|
-----------------------------|---------------------------|
--3S-5-5--5--5-5-------------|---------------3-3--3-3-3--|
------------------3-3--3--3--|--1----1--1-1--------------|


> > > > > > > > > > >
S S E E S E S E E S S S S E E S S S S S S S S S S
------------------------------|----------------7-5---7-5-------|
------------------------------|--------------7-----7-----7-5-3-|
--3S-5-5--5--x-5----5--x--x-5-|--L---5--x--x-------------------|
------------------------------|--------------------------------|


> > > > > > > > > > > > >
> > > > > >
Q E S E S E S S E S S E E S E S E E E
---------------------------|-----------------------------|
---------------------------|-----------------------------|
---------------3-3--3-3-3--|--3S-5-5--5--5-5-------------|
--1----1--1-1--------------|------------------3-3--3--3--|


> > > > > > > > > > > > >
> > > > > >
Q E S E S E S S E S S E E S E S E E E
---------------------------|-----------------------------|
---------------------------|-----------------------------|
---------------3-3--3-3-3--|--3S-5-5--5--5-5-------------|
--1----1--1-1--------------|------------------3-3--3--3--|


> > > > > > > > > > > > >
>
Q E S E S E S S E S S E E E E E E E
---------------------------|-----------------------7--L--|
---------------------------|----------------7S--3--------|
---------------3-3--3-3-3--|--3S-5-5--5--5---------------|
--1----1--1-1--------------|-----------------------------|


E E E E E E E E E E E E E E E E
--------------------------|--------------------------|
--------------------------|--------------------------|
--------------------------|-----------------0--1--2--|
--1--1--1--1--1--1--1--1--|--1--1--1--1--1-----------|


Q E S E S E S E S E S E S E S E. Q W
---------------------------|--2----3----4----5---5S----|---------------------|
-------2----3----4----5----|---------------------------|--12~----------------|
--3-------3----3----3----3-|-----3----3----3-----------|---------------------|
---------------------------|---------------------------|---------------------|


W W W W
-------------------|-------------------|-------------------|-------------------|
--L----------------|-------------------|-------------------|-------------------|
--L----------------|-------------------|-------------------|-------------------|
-------------------|-------------------|-------------------|-------------------|


W W W W
-------------------|-------------------|-------------------|-------------------|
-------------------|-------------------|-------------------|-------------------|
-------------------|-------------------|-------------------|-------------------|
-------------------|-------------------|-------------------|-------------------|


W W W W
-------------------|-------------------|-------------------|-------------------|
-------------------|-------------------|-------------------|-------------------|
-------------------|-------------------|-------------------|-------------------|
-------------------|-------------------|-------------------|-------------------|


W W W W
-------------------|-------------------|-------------------|-------------------|
-------------------|-------------------|-------------------|-------------------|
-------------------|-------------------|-------------------|-------------------|
-------------------|-------------------|-------------------|-------------------|


W W W
-------------------|-------------------|-------------------||
-------------------|-------------------|-------------------||
-------------------|-------------------|-------------------||
-------------------|-------------------|-------------------||




Duration Legend
---------------
W - whole
H - half
Q - quarter
E - 8th
S - 16th
T - 32nd
X - 64th
. - note dotted
|-n-| - n-tuplets


Tablature Legend
----------------
L - tied note
x - dead note
g - grace note
(n) - ghost note
> - accentuded note
NH - natural harmonic
AH - artificial harmonic
TH - tapped harmonic
SH - semi harmonic
PH - pitch harmonic
h - hammer on
p - pull off
b - bend
br - bendRelease
pb - preBend
pbr - preBendRelease
brb - bendReleaseBend
\n/ - tremolo bar dip
\n - tremolo bar dive
-/n - tremolo bar Release up
/n\ - tremolo bar inverted dip
/n - tremolo bar return
-\n - tremolo bar Release down
S - shift slide
s - legato slide
/ - slide into from below or out of upwards
\ - slide into from above or out of downwards
~ - vibrato
W - wide vibrato
tr - trill
TP - tremolo picking
T - tapping
S - slap
P - pop
< - fade in
^ - brush up
v - brush down



Get this song at amazon.com      Ebay     Ringtones Ringtones  


Learn to play: Songwriting, Piano, Harmonica, Guitar
More Red Hot Chili Peppers lyrics available at Muzikum

Related Red Hot Chili Peppers Bass Tabs

Giveitaway bass
Wet Sand (complete) bass
Get On Top bass
Slowly Deeply bass
Snow Hey Oh bass
Under The Bridge "gutar Start" bass
Midnight bass
Fleas Funkadelic Jam(woodstock 99') bass
Quixoticelixer bass
Flea:funk Song bass
One Of Fleas Funky Solos bass
Felas Cock bass
Higher Ground (stevie Wonder Cover) bass
Awakening bass
Bass Solo bass
Behind The Sun bass
Sikamikahingo bass
Time bass
Police Helicopter bass
Deep Kick bass


Guitar Tabs









All tabs are property and copyright of their owners. All tabs provided for educational purposes only. Privacy Policy, DMCA

Online converter - videoconverter.com