Red Hot Chili Peppers

Dani Califoina Bass Tabs



More from Red Hot Chili Peppers

Red Hot Chili Peppers Tabs
Red Hot Chili Peppers Chords
Red Hot Chili Peppers Bass
Red Hot Chili Peppers Lyrics




Into/Verse:

G---------------7---------
D---7----5-3------5/7\5---
A------------55--------7-5
E-55-5\33-----------------

Chrous:

G--------------------
D--------------------
A-------33-4/55555---
E-11111------------33

Bridge:

G-------------|***----------------
D---9-----9---|***-------12-------
A-----7/9---99|***-10-10---10---99
E-77----------|***----------------

***When you play the bridge you play it like this 3 times then
it goes like this on the fourth time... you play it like this and
then jump right back into the verse

G------------|-----------------
D---9----9---|-9-9-9-9---------
A----7/9---99|--------------7--
E-77---------|----------7-10--7



Get this song at amazon.com      Ebay     Ringtones Ringtones  


Learn to play: Songwriting, Piano, Harmonica, Guitar
More Red Hot Chili Peppers lyrics available at Muzikum

Related Red Hot Chili Peppers Bass Tabs

Give It Away (beginners Alternative) bass
Baby Appea bass
Green Heaven bass
FelaĊ½s Cock bass
If bass
Slowly Deeply bass
Fu bass
Off The Map Jams bass
Ready Me bass
Warlocks bass
True Men Don't Kill Coyotes bass
Throw Away Your Telivision bass
By The Way ( For Those That Have Only 20 Frets) bass
Baby Appeal bass
Otherside Perfect Bass Tab bass
21st Century bass
The Power Of Equality bass
Get On Top bass
The Righteous And The Wicked(4 String) bass
Good Time Boys bass


Guitar Tabs









All tabs are property and copyright of their owners. All tabs provided for educational purposes only. Privacy Policy, DMCA