Red Hot Chili Peppers

Charlie (perfect) Tab Tabs



More from Red Hot Chili Peppers

Red Hot Chili Peppers Tabs
Red Hot Chili Peppers Chords
Red Hot Chili Peppers Bass
Red Hot Chili Peppers Lyrics




TABBED BY THE JOEMEISTER
PLEASE RATE WELL


e|--------------------------|
B|--------------------------|
G|-----------3-----------3--|
D|-----3---2-------3---2----|
A|---2---1-------2---1------|
E|-1-----------1------------|

e|-----------------------------|
B|-8-8x-8-x-8---8-8-x-8-x-8---|
G|-7-7x-7-x-7---7-7-x-7-x-7---|repeat
D|-8-8x-8-x-8---8-8-x-8-x-8---|
A|-----------------------------|
E|-----------------------------|


e|-----------------------------|
B|-8-8x-8-x-8---8-8-x-8-x-8---|
G|-7-7x-7-x-7---7-7-x-7-x-7---|repeat
D|-8-8x-8-x-8---8-8-x-8-x-8---|
A|-----------------------------|
E|-----------------------------|


e|-15-15-x-15-x-15---15-15-x-15-x-15---|
B|-15-15-x-15-x-15---15-15-x-15-x-15---|
G|-15-15-x-15-x-15---15-15-x-15-x-15---|repeat
D|-------------------------------------|
A|-------------------------------------|
E|-------------------------------------|

e|-15-15-x-15-x-15---15-15-x-15-x-15---|
B|-15-15-x-15-x-15---15-15-x-15-x-15---|
G|-15-15-x-15-x-15---15-15-x-15-x-15---|repeat
D|-------------------------------------|
A|-------------------------------------|
E|-------------------------------------|

Chorus:
e|-----------------|-------------------|
B|-----------------|-------------------|
G|-x-x-8-8-x-x-7-7-|-x-x-10-10-x-x-8-8-|
D|-----------------|-------------------|
A|-----------------|-------------------|
E|-----------------|-------------------|

e|-----------------|---------------------------8--8-8--8--8--8-8-|
B|-----------------|-x-10-10-x-x-10-10-10-x-x-10-10-10-10-10-10-10-|
G|-x-x-8-8-x-x-7-7-|-x-10-10-x-x-10-10-10-x-x----------------------|
D|-----------------|-----------------------------------------------|
A|-----------------|-----------------------------------------------|
E|-----------------|-----------------------------------------------|




Chorus

e|-------------------|-------------------|
B|-------------------|-------------------|
G|-7--5---5----------|-7--5---5----------|
D|------8---8-7--5--|------8---8--7--5--|
A|-------------------|-------------------|
E|-------------------|-------------------|


e|-------------------|-------------------|
B|-------------------|-------------------|
G|-7--5---5----------|-7--5---5----------|
D|------8---8-7--5--|------8---8--7--5--|
A|-------------------|-------------------|
E|-------------------|-------------------|



Get this song at amazon.com      Ebay     Ringtones Ringtones  


Learn to play: Songwriting, Piano, Harmonica, Guitar
More Red Hot Chili Peppers lyrics available at Muzikum

Related Red Hot Chili Peppers Tabs

Annie Wants A Baby tabs
Dosed Bass tabs
Single-note Funk tabs
Leverage Of Space tabs
Storm In A Teacup Bass tabs
Stone Cold Bush tabs
Torture Me Bass tabs
Sir Psycho Sexy tabs
Cant Stop Live tabs
My Friends tabs
Roller coaster of love tabs
I Could Die For You (5) tabs
Stinky Sweaty Man tabs
Hump De Bump Bass tabs
We Believe tabs
Californication (song) tabs
Dani California tabs
Lets Make Evil tabs
Road Trippin tabs
Yertle The Turtle Bass tabs


Guitar Tabs









All tabs are property and copyright of their owners. All tabs provided for educational purposes only. Privacy Policy, DMCA