Red Hot Chili Peppers

Cant Stop Tabs



More from Red Hot Chili Peppers

Red Hot Chili Peppers Tabs
Red Hot Chili Peppers Chords
Red Hot Chili Peppers Bass
Red Hot Chili Peppers Lyrics

INTRO 

-|------------------------------|

-|------------------------------|

-|------------------------------|

-|------------------------------|

-|-5-7---5-7---5-7---5-7---5-7--|(X AS NEEDED)

-|------------------------------|



Verses

-|----------------------------------------------------------------------------------

-|----------------------------------------------------------------------------------

-|------7--9---------7--9------------7--9---------7--9-----------7--9-------7--9----

-|----------------------------------------------------------------------------------

-|-7-7--------7-7-7--------7-7-7--5--------5-5-5-------5-5-5--4-------4-4-4---------

-|---------------------------------------------------------------------------------(THEN BACK AROUND)



SOLO

-|----------------------------------------------------------------------------

-|-15b17-----15b17---15---15---12---12----------------------------------------

-|--------------------------------------12---12-------------------------------

-|----------------------------------------------------------------------------

-|----------------------------------------------------------------------------

-|----------------------------------------------------------------------------

Get this song at amazon.com      Ebay     Ringtones Ringtones  


Learn to play: Songwriting, Piano, Harmonica, Guitar
Also available at Muzikum: Red Hot Chili Peppers - Can't Stop lyrics

Related Red Hot Chili Peppers Tabs

Eskimo tabs
Give It Away Version 2 tabs
What Is Soul tabs
So Much I Bass tabs
The Greeting Song tabs
Hollywood tabs
Melancoly Mechanics tabs
Save The Population (4) tabs
Rivers Of Avalon (2) tabs
Otherside tabs
Higher Ground Bass tabs
Universally Speaking (5) tabs
Right On Time tabs
Fire tabs
Subway To Venus Solo tabs
Cant Stop tabs
Hump De Bump Bass tabs
Leverage Of Space tabs
Hyde Park Solo tabs
Espacially In Michigan tabs


Guitar Tabs









All tabs are property and copyright of their owners. All tabs provided for educational purposes only. Privacy Policy, DMCA