Red Hot Chili Peppers

Cant Stop Intro Tabs



More from Red Hot Chili Peppers

Red Hot Chili Peppers Tabs
Red Hot Chili Peppers Chords
Red Hot Chili Peppers Bass
Red Hot Chili Peppers Lyrics




intro

E-----------------------------------------|
B-----------------------------------------|
G-----------------------------------------|
D-----------------------------------------|
A--5-7--REPEAT AS MANY TIMES AS NEEDED----|
E-----------------------------------------|



E---------------------------------------------------------------------------------------|
B---------------------------------------------------------------------------------------|
G-----7-9---------7-9-----------7-9----------7-9----------7-9-------7-9------------7-9--|
D---------------------------------------------------------------------------------------|
A--7-------7-7-7-------7-7-7-5-------5-5-5---------5-5-5--------------------------------|
E--------------------------------------------------------7-----7-7-7-----7-7-7-8--------|


E-----------------|
B-----------------|
G----------7-9----|
D-----------------|
A-----------------|
E--8-8-8----------|


THATS IT ENJOI



Get this song at amazon.com      Ebay     Ringtones Ringtones  


Learn to play: Songwriting, Piano, Harmonica, Guitar
Also available at Muzikum: Red Hot Chili Peppers - Cant Stop Intro lyrics

Related Red Hot Chili Peppers Tabs

Dosed tabs
Maybe tabs
Behind The Song tabs
Midnight (3) tabs
Bicycle Song Bass tabs
Tell Me Baby , Good Version tabs
Can't Stop tabs
Dani California Bass tabs
Strip My Mind tabs
Battle Ship tabs
Salute To Kareem tabs
Midnight tabs
Show Me Your Soul tabs
If tabs
Tiny Dancer tabs
Subway To Venus tabs
Subterranean Homesick Blues tabs
Lovercall tabs
This Velvet Glove (2) tabs
Minor Thing (4) tabs


Guitar Tabs









All tabs are property and copyright of their owners. All tabs provided for educational purposes only. Privacy Policy, DMCA

Online converter - videoconverter.com