Red Hot Chili Peppers

Can't Stop Tabs



More from Red Hot Chili Peppers

Red Hot Chili Peppers Tabs
Red Hot Chili Peppers Chords
Red Hot Chili Peppers Bass
Red Hot Chili Peppers Lyrics




INTRO

e|------------------------------|
B|------------------------------|
G|------------------------------|
D|------------------------------|
A|-5-7---5-7---5-7---5-7---5-7--|
E|------------------------------|x4

e|------------------------------|
B|------------------------------|
G|------------------------------|
D|-5-7---5-7---5-7---5----5-7---|
A|-5-7---5-7---5-7---5----5-7---|
E|---------------------7--------|x1

e|------------------------------|
B|------------------------------|
G|------------------------------|
D|------------------------------|
A|-5-7---5-7---5-7---5-7---5-7--|
E|------------------------------|x3

VERSE 1 And 2

Riff A

e|------------------------------------------------------------|
B|------------------------------------------------------------|
G|------7--9---------7--9------------7--9---------7--9--------|
D|------------------------------------------------------------|
A|-7-7--------7-7-7--------7-7-7--5--------5-5-5-------5-5-5--|
E|------------------------------------------------------------|

e|---------------------------------------------------------|
B|---------------------------------------------------------|
G|----7--9---------7--9------------7--9--------7--9--------|
D|---------------------------------------------------------|
A|---------------------------------------------------------|
E|-7--------7-7-7--------7-7-7--8-------8-8-8--------8-8-8-|x4

Riff B

e|-----------------------------------------------------------|
B|-----------------------------------------------------------|
G|------7--9---------7--9------------7--9---------7--9-------|
D|-----------------------------------------------------------|
A|-7-7--------7-7-7--------7-7-7--5--------5-5-5-------5-5-5-|
E|-----------------------------------------------------------|

e|--------------------------------7--7--7--7-|
B|--------------------------------8--8--8--8-|
G|----7--9---------7--9-----------9--9--9--9-|
D|-------------------------------------------|
A|-------------------------------------------|
E|-7--------7-7-7--------7-7-7---------------|

CHORUS

e|-7--7---7--7--7----2--2---5--5--5----3--3---7--7--7----2--2---5--5--5-|
B|-8--8---7--7--7----3--3---5--5--5----3--3---7--7--7----3--3---5--5--5-|
G|-9--9---7--7--7----4--4---5--5--5----4--4---7--7--7----4--4---5--5--5-|
D|-9--9---7--7--7----4--4---5--5--5----5--5---7--7--7----4--4---5--5--5-|
A|-7--7---5--5--5----2--2---3--3--3----5--5---5--5--5----2--2---3--3--3-|
E|-------------------------------------3--3-----------------------------|

e|-7--7---7--7--7----2--2---5--5--5----3--3---7--7--7----2--3-|
B|-8--8---7--7--7----3--3---5--5--5----3--3---7--7--7----3--5-|
G|-9--9---7--7--7----4--4---5--5--5----4--4---7--7--7----4--5-|
D|-9--9---7--7--7----4--4---5--5--5----5--5---7--7--7----4--5-|
A|-7--7---5--5--5----2--2---3--3--3----5--5---5--5--5----2--3-|
E|-------------------------------------3--3-------------------|

VERSE

CHORUS

VERSE 3
e|--7--7--7---5--5--5---2--2--2---3--3--3-|
B|--8--8--8---7--7--7---3--3--3---5--5--5-|
G|--9--9--9---7--7--7---4--4--4---5--5--5-|
D|----------------------------------------|
A|----------------------------------------|
E|----------------------------------------|

SOLO

e|----------------------------------------------|
B|-15b17-----15b17---15---15---12---12----------|
G|--------------------------------------12---12-|
D|----------------------------------------------|
A|----------------------------------------------|
E|----------------------------------------------|



Get this song at amazon.com      Ebay     Ringtones Ringtones  


Learn to play: Songwriting, Piano, Harmonica, Guitar
Also available at Muzikum: Red Hot Chili Peppers - Can't Stop lyrics

Related Red Hot Chili Peppers Tabs

Charlie Bass tabs
Hey tabs
By The Way (live) (2) tabs
Zephyr Song, The tabs
On Mercury tabs
Teatro Jam tabs
Shallow Be Thy Game tabs
City Of Angels Intro tabs
Minor Thing (3) tabs
Minor Thing (4) tabs
Dany California tabs
Tear (3) tabs
Time tabs
I Could Have Lied tabs
Californication (song) tabs
Venice Queen (2) tabs
Charlie (perfect) Tab tabs
This Is The Place tabs
Mommy Wheres Daddy Bass tabs
This Velvet Glove tabs


Guitar Tabs









All tabs are property and copyright of their owners. All tabs provided for educational purposes only. Privacy Policy, DMCA