Red Hot Chili Peppers

Can't Stop (correct) Bass Tabs



More from Red Hot Chili Peppers

Red Hot Chili Peppers Tabs
Red Hot Chili Peppers Chords
Red Hot Chili Peppers Bass
Red Hot Chili Peppers Lyrics




Artist: Red Hot Chili Peppers
Song: Can’t Stop

Intro
|-------------------------------------------------------------------------------------|
|-------------------------------------------------------------------------------------|
|-------------------------------------------------------------------------------------|
|0-0-0-0-0-0-0-0-0-0-0-0-0-0-0-0-0-0-0-0-0-0-0-0-0-0-0-0-0-0-0-0-0-0-0-0-0-0-0-0-0-0--|

0:43 Verse
|----7--9---------7--9--------------7--9--------7--9-----------------------------------------------------|
|--------------------------------0----------0-0-----------0-0--------------------------------------------|
|-7--------7-7-----------7-7-------------------------------------9-9--------9-9------10-10---------10-10-|
|--------------------------------------------------------------7------7-7------8--------8-8--------------|
Chorus
|-------------------------------------------------------------------------------------------9-7-|
|------7-9-10-12----9-9-7-9-10-----10--12--10-----7-9-10-12-----9-9-7-9-10--------7-------------|
|-10---------------------------------------------------------10---------------------------------|
|-----------------------------------------------------------------------------------------------|
Bridge
|----9--9----------14-------------------------------9-----9----------------------------------|
|-------------------------12--0--12------------------------------------12---10--------10-----|
|-7--------7-------------------------------------7-------------7-----------------------------|
|------------------------------------------------------------------------------------------8-|

Intro-0:00 – 0:22
Verse-0:43 – 1:14
Chorus-1:14 – 1:34
Verse-1:35 – 2:17
Chorus-2:18 – 2:37
Bridge-2:38 – 3:19
Verse-3:20 – until end



Get this song at amazon.com      Ebay     Ringtones Ringtones  


Learn to play: Songwriting, Piano, Harmonica, Guitar
Also available at Muzikum: Red Hot Chili Peppers - Cant Stop Correct lyrics

Related Red Hot Chili Peppers Bass Tabs

Ready Made bass
Warm Tape bass
Mellowship Slinky In Bminor bass
Bunker Hill bass
Fleas Warm Up bass
Higher Ground (stevie Wonder Cover) bass
Torture Me bass
Bicycle Song bass
Pretty Little Ditty bass
Theyre Red Hot bass
Subterranean Homesick Blues bass
Woodstock Intro Bass Solo bass
The Brothers Cup bass
C'mon Girl bass
The Greeting Song bass
Lets Make Evil bass
Dani California (correct) bass
Easiliy bass
Off The Map Jams bass
Pea bass


Guitar Tabs









All tabs are property and copyright of their owners. All tabs provided for educational purposes only. Privacy Policy, DMCA

Online converter - videoconverter.com