Red Hot Chili Peppers

Can't Stop Bass Tabs



More from Red Hot Chili Peppers

Red Hot Chili Peppers Tabs
Red Hot Chili Peppers Chords
Red Hot Chili Peppers Bass
Red Hot Chili Peppers Lyrics




Intro:
Pedal-0:23 0:43 3x
|----------|REST|---7-9-----77-99-----7-9-----7-99-------------------------|-|-|--|
|----------|REST|----------------------------------------------------------|-|-|--|
|----------|REST|7-----7-7---------7-5-----5-5-----------------------------|5|5|10|
|-0-0-0-0--|REST|-----------------------------------5-7-77-7777-7-888-88888|-|-|--|

Chorus:
|--------------------------------------------------------|
|-----------------------------------------5p0h2p0-9-7----|
|---5-235-55-2---23-3535---5235-55-2---23-------------777|
|-3------------2---------3-----------2-------------------|

Bridge:
|---9----------------------------|
|----------7----------5/7--------|
|-7---7-5----55-22-22---------56-|
|-------------------------888----|

|---------79----799----79-----799------------------------------9-----|
|5/7----------------------------------99--9---99-10-10-10---7h9-5h7p5|
|----56-7----77-----75-----55----------------------------------------|
|--------------------------------57----77--7----78--------8----------|



Get this song at amazon.com      Ebay     Ringtones Ringtones  


Learn to play: Songwriting, Piano, Harmonica, Guitar
Also available at Muzikum: Red Hot Chili Peppers - Can't Stop lyrics

Related Red Hot Chili Peppers Bass Tabs

Warped bass
Under The Bridge (guitar Intro For Bass) bass
Backwoods bass
Crosstown Traffic bass
Aeroplane (perfect) bass
Soul To Squeeze (now Really 100% Correct !) bass
The Song That Made Us What We Are Today bass
123456 bass
Midnight bass
The Righteous And The Wicked(4 String) bass
Higher Ground bass
Californication (Version 2) bass
Don t forget me bass
Spell Correctly bass
Soul To Squeeze bass
If You Want Me To Stay (the Real Way!) bass
Goodbye Hooray bass
Sikamikanico bass
Breaking The Girl! bass
Tear (complete) bass


Guitar Tabs









All tabs are property and copyright of their owners. All tabs provided for educational purposes only. Privacy Policy, DMCA