Red Hot Chili Peppers

Can't Stop Bass Tab Bass Tabs



More from Red Hot Chili Peppers

Red Hot Chili Peppers Tabs
Red Hot Chili Peppers Chords
Red Hot Chili Peppers Bass
Red Hot Chili Peppers Lyrics




h = hammer on
p = pull off
/ = slide up
() = harmonic
x = mute

Intro (Repeat until drums stop):
G|-----------------|
D|-----------------|
A|-----------------|
E|-0-0-0-0-0-0-0-0-|

Verse 1 (Start after the 4th line of singing, "Distant cousin
to the reservation"):
G|----------------------------------------------------------------------|
D|----------------------------------------------------------------------|
A|-7-5-7-7-7-xxxxx-7-5-xx-5-5-xxxxx-0-2-xx-2-2-xxxxx-2-3-xx-3-3-xxxxx-3-|
E|----------------------------------------------------------------------|x2

G|---------------------------------------------------------------------|
D|---------------------------------------------------------------------|
A|-7-5-7-7-7-xxxxx-7-5-xx-5-5-xxxxx-0-2-xx-2-2-xxxxx-2-3-3-3-3-3-3-3-3-|
E|---------------------------------------------------------------------|

Chorus 1:
G|------------------------------------------------------------------7/9-7-|
D|------------------------------------------------------------------------|
A|----2-3-5--5-5-5-2-2p-2p-3--3-3h5-3h5----2-3-5--5-5-5-2p--2p-3--3-------|
E|-3------------------------------------3---------------------------------|

G|------------------------------------------------|
D|------------------------------------------------|
A|----2-3-5--5-5-5-2p--3--3-3h5---2-3-5--5-5--2-3-|
E|-3----------------------------3-----------------|

Verse 2:
G|----------------------------------------------------------------------|
D|----------------------------------------------------------------------|
A|-7-5-7-7-7-xxxxx-7-5-xx-5-5-xxxxx-0-2-xx-2-2-xxxxx-2-3-xx-3-3-xxxxx-3-|
E|----------------------------------------------------------------------|x2

G|--------------------------------------------------------------9-7-------|
D|------------------------------------------------------------------5-7---|
A|-7-5-7-7-7-xxxxx-7-5-xx-5-5-xxxxx-0-2-xx-2-2-xxxxx-2-3-xx-3-3---------5-|
E|------------------------------------------------------------------------|

G|---------------------------------------------------------------------|
D|---------------------------------------------------------------------|
A|-7-5-7-7-7-xxxxx-7-5-xx-5-5-xxxxx-0-2-xx-2-2-xxxxx-2-3-3-3-3-3-3-3-3-|
E|---------------------------------------------------------------------|

Chorus 2:
G|-----------------------------7-5-4---4-5-7--7-7-7----------7/9-9-7--------4-5-7--7-7-7-|
D|-----------------------------------5-------------------------------10-9-5--------------|
A|----2-3-5--5-5-5-2p--2p-3--3----------------------2p--2p-3-----------------------------|
E|-3-------------------------------------------------------------------------------------|

G|----------------------------------------|
D|-------------0--------------------------|
A|-2p--2p-3--3---3-2-0----2-3-5--5-5--2-3-|
E|---------------------3------------------|

Bridge:
G|-------------------------------4-------7-5-----|
D|------------(7)--------------------------------|
A|-7-7---7-------(7)-5-5----2-2---2----------3-3-|
E|-----0-----------------------------------------|

G|----------------7------------4------7-5----------|
D|-------------------------------------------------|
A|-7-7---7----x-5---5----2-2-2---2--------3-3--5-6-|
E|-----0-------------------------------------------|

G|-------------------------------4-------7-5---------------|
D|------------(7)--------------------------------5h7-5-----|
A|-7-7---7-------(7)-5-5----2-2---2----------3-3-------5-6-|
E|-----0---------------------------------------------------|

G|----------------7------------4------7-5-----|
D|--------------------------------------------|
A|-7-7---7----x-5---5----2-2-2---2--------3-3-|
E|-----0--------------------------------------|

Just bass and guitar (Slap):
G|---------------------7-9-----7-9-------4-4-----4-4-4-----5-5---| Pluck
D|---------------------------------------------------------------|
A|-7-5-7-----5-7---7-5-----5-5-----5-0-2-----2-2-------2-3-----3-| Slap
E|-------0-x-----x-----------------------------------------------| Slap

Just bass and guitar (Don't slap):
G|-----7---------|
D|-7h9---7-5h7-5-|
A|---------------|
E|---------------|

Verse 3:
G|----------------------------------------------------------------------|
D|----------------------------------------------------------------------|
A|-7-5-7-7-7-xxxxx-7-5-xx-5-5-xxxxx-0-2-xx-2-2-xxxxx-2-3-xx-3-3-xxxxx-3-|
E|----------------------------------------------------------------------|x5

My teacher showed me this one, hope it helps.



Get this song at amazon.com      Ebay     Ringtones Ringtones  


Learn to play: Songwriting, Piano, Harmonica, Guitar
More Red Hot Chili Peppers lyrics available at Muzikum

Related Red Hot Chili Peppers Bass Tabs

Pea~flea bass
Hump De Bump (100% Correct) bass
Under The Brgidge(downtown) bass
Tell Me Baby (live) bass
Stick Jam(live) bass
True Men Dont Kill Coyotes (full) bass
Behind The Sun bass
What Is Soul bass
Fu bass
Sexy Mexican Maid bass
F U bass
C'mon Girl bass
Rolling Sly Stone bass
Californiacation bass
Love Rollercoaster bass
Slowly Deeply bass
Look Around bass
Fly bass
Mexican Maid bass
Out In La bass


Guitar Tabs









All tabs are property and copyright of their owners. All tabs provided for educational purposes only. Privacy Policy, DMCA