Red Hot Chili Peppers

Can't Stop 2.0 + Lyrics Tabs



More from Red Hot Chili Peppers

Red Hot Chili Peppers Tabs
Red Hot Chili Peppers Chords
Red Hot Chili Peppers Bass
Red Hot Chili Peppers Lyrics




Artist:Red Hot Chili Peppers (RHCP)
Album: By The Way
Track No: 7
4:35 (5:15 [Live In Hyde Park Album Version])

My Old Tab Of This Was Lacking So I Updated it


INTRO

e|------------------------------|
B|------------------------------|
G|------------------------------|
D|------------------------------|
A|-5-7---5-7---5-7---5-7---5-7--|
E|------------------------------|x4

e|------------------------------|
B|------------------------------|
G|------------------------------|
D|------------------------------|
A|-5-7---5-7---5-7---5----5-7---|
E|---------------------7--------|x1

e|------------------------------|
B|------------------------------|
G|------------------------------|
D|------------------------------|
A|-5-7---5-7---5-7---5-7---5-7--|
E|------------------------------|x3

VERSE 1

Riff A x 4

e|------------------------------------------------------------|
B|------------------------------------------------------------|
G|------7--9---------7--9------------7--9---------7--9--------|
D|--------------------------------0--------0-0-0-------0-0-0--|
A|-7-7--------7-7-7--------7-7-7------------------------------|
E|------------------------------------------------------------|

e|---------------------------------------------------------|
B|---------------------------------------------------------|
G|----7--9---------7--9------------7--9--------7--9--------|
D|---------------------------------------------------------|
A|---------------------------------------------------------|
E|-7--------7-7-7--------7-7-7--8-------8-8-8--------8-8-8-|

Riff B

e|-----------------------------------------------------------|
B|-----------------------------------------------------------|
G|------7--9---------7--9------------7--9---------7--9-------|
D|-----------------------------------------------------------|
A|-7-7--------7-7-7--------7-7-7--5--------5-5-5-------5-5-5-|
E|-----------------------------------------------------------|

e|--------------------------------7--7--7--7-|
B|--------------------------------8--8--8--8-|
G|----7--9---------7--9-----------9--9--9--9-|
D|-------------------------------------------|
A|-------------------------------------------|
E|-7--------7-7-7--------7-7-7---------------|

CHORUS

e|-7--7---7--7--7----2--2---5--5--5----3--3---7--7--7----2--2---5--5--5-|
B|-8--8---7--7--7----3--3---5--5--5----3--3---7--7--7----3--3---5--5--5-|
G|-9--9---7--7--7----4--4---5--5--5----4--4---7--7--7----4--4---5--5--5-|
D|-9--9---7--7--7----4--4---5--5--5----5--5---7--7--7----4--4---5--5--5-|
A|-7--7---5--5--5----2--2---3--3--3----5--5---5--5--5----2--2---3--3--3-|
E|-------------------------------------3--3-----------------------------|

e|-7--7---7--7--7----2--2---5--5--5----3--3---7--7--7----2--3-|
B|-8--8---7--7--7----3--3---5--5--5----3--3---7--7--7----3--5-|
G|-9--9---7--7--7----4--4---5--5--5----4--4---7--7--7----4--5-|
D|-9--9---7--7--7----4--4---5--5--5----5--5---7--7--7----4--5-|
A|-7--7---5--5--5----2--2---3--3--3----5--5---5--5--5----2--3-|
E|-------------------------------------3--3-------------------|


VERSE 2
Riff A And B


CHORUS


VERSE 3

e|--7--7--7---5--5--5---2--2--2---3--3--3-|every off
beat ( not eactly 3 listen to the )
B|--8--8--8---7--7--7---3--3--3---5--5--5-| ( song to
work out how long )
G|--9--9--9---7--7--7---4--4--4---5--5--5-| ( you play
each note )
D|----------------------------------------|
A|----------------------------------------|
E|----------------------------------------|x5

SOLO

e|----------------------------------------------|
B|-15b17~~-----15b17~---15~~---15~-12~~-12~-----|
G|-----------------------------------------12~~-|
D|----------------------------------------------|
A|----------------------------------------------|
E|----------------------------------------------|


e|-----------------------------------------------|
B|-15b17~~-----15b19~---15~~---15~-12~~-12~------|
G|-----------------------------------------12-12-|
D|-----------------------------------------------|
A|-----------------------------------------------|
E|-----------------------------------------------|

Outro
e|------------------------------------------------------------|
B|------------------------------------------------------------|
G|------7--9---------7--9------------7--9---------7--9--------|
D|--------------------------------0--------0-0-0-------0-0-0--|
A|-7-7--------7-7-7--------7-7-7------------------------------|
E|------------------------------------------------------------|

e|---------------------------------------------------------|
B|---------------------------------------------------------|
G|----7--9---------7--9------------7--9--------7--9--------|
D|---------------------------------------------------------|
A|---------------------------------------------------------|
E|-7--------7-7-7--------7-7-7--8-------8-8-8--------8-8-8-|x4
Lyrics

Can't stop addicted to the shin dig
Cop top he says I'm gonna win big
Choose not a life of imitation
Distant cousin to the reservation
Defunkt the pistol that you pay for
This punk the feeling that you stay for
In time I want to be your best friend
Eastside love is living on the westend
Knock out but boy you better come to
Don't die you know the truth is some do
Go write your message on the pavement
Burnin' so bright I wonder what the wave meant
White heat is screaming in the jungle
Complete the motion if you stumble
Go ask the dust for any answers
Come back strong with 50 belly dancers

[Chorus:]
The world I love
The tears I drop
To be part of
The wave can't stop
Ever wonder if it's all for you
The world I love
The trains I hop
To be part of
The wave can't stop
Come and tell me when it's time to

Sweetheart is bleeding in the snowcone
So smart she's leading me to ozone
Music the great communicator
Use two sticks to make it in the nature
I'll get you into penetration
The gender of a generation
The birth of every other nation
Worth your weight the gold of meditation
This chapter's going to be a close one
Smoke rings I know your going to blow one
All on a spaceship persevering
Use my hands for everything but steering
Can't stop the spirits when they need you
Mop tops are happy when they feed you
J. Butterfly is in the treetop
Birds that blow the meaning into bebop

[Chorus]

Wait a minute I'm passing out
Win or lose just like you
Far more shocking
Than anything i ever knew
How about you
10 more reasons
Why i need somebody new just like you
Far more shocking than anything I ever knew
Right on cue

Can't stop addicted to the shin dig
Cop top he says I'm gonna win big
Choose not a life of imitation
Distant cousin to the reservation
Defunkt the pistol that you pay for
This punk the feeling that you stay for
In time I want to be your best friend
Eastside love is living on the westend
Knock out but boy you better come to
Don't die you know the truth is some do
Go write your message on the pavement
Burnin' so bright I wonder what the wave meant

Kick start the golden generator
Sweet talk but don't intimidate her
Can't stop the gods from engineering
Feel no need for any interfering
Your image in the dictionary
This life is more than ordinary
Can I get 2 maybe even 3 of these
Come from space
To teach you of the pliedes
Can't stop the spirits when they need you
This life is more than just a read thru

Version One:
http://www.tabs-database.com/r/red_hot_chili_peppers/335988.html



Get this song at amazon.com      Ebay     Ringtones Ringtones  


Learn to play: Songwriting, Piano, Harmonica, Guitar
More Red Hot Chili Peppers lyrics available at Muzikum

Related Red Hot Chili Peppers Tabs

Get Up And Jump Live tabs
If You Have To Ask Bass tabs
Grand Pappy Du Plenty tabs
Parallel Universe Bass tabs
Desecration Smile tabs
Monarchy Of Roses tabs
Me And My Friends tabs
What Is Soul Intro tabs
Fire tabs
Why Dont You Love Me tabs
Warlocks Bass tabs
Dani California Bass tabs
Battle Ship tabs
Cabron Bass tabs
On Mercury Bass tabs
Under The Bridge tabs
Dont Forget Me Live tabs
Road Trippin tabs
Havana Affair (the Ramones Cover) tabs
She Looks To Me tabs


Guitar Tabs









All tabs are property and copyright of their owners. All tabs provided for educational purposes only. Privacy Policy, DMCA