Red Hot Chili Peppers

Californication (easy) Bass Tabs



More from Red Hot Chili Peppers

Red Hot Chili Peppers Tabs
Red Hot Chili Peppers Chords
Red Hot Chili Peppers Bass
Red Hot Chili Peppers Lyrics




Artist-Red Hot Chilli Peppers
Album-Californication
Song-Californication

Intro
G-----9-9--7h9p7------7-7-5--------9-9--7h9p7------10-10-7-
D-7-7------------------------7-7---------------------------
A-----------------8-8-------------------------8-8----------
E----------------------------------------------------------


Verse
G-----9-9--9-7h9p7--------7-7---------9-9--9-7h9p7--------10-10-7-
D-7-7--------------10---------10--7-7--------------10-------------
A---------------------8-8-----------------------------8-8---------
E-----------------------------------------------------------------

G-----------------
D-----------------
A-3-3---------5-5-
E-----3-3-1-1-----

G-----9-9--9-7h9p7--------7-7---------9-9--9-7h9p7--------10-10-7-
D-7-7--------------10---------10--7-7--------------10-------------
A---------------------8-8-----------------------------8-8---------
E-----------------------------------------------------------------

G-----------------
D-----------------
A-3-3---------5-5-
E-----3-3-1-1-----


Pre-chorus
G--------------------------------------
D-7-777-7-777-9-10-------------10-9----
A------------------8-888-88-88------10-
E--------------------------------------

G----------------------7/9-9-7-5--
D-7-777-7-777-9-10----------------
A------------------888------------
E---------------------------------


G--------------------------------------
D-7-777-7-777-9-10-------------9-10----
A------------------8-888-88-88------10-
E--------------------------------------

G--------------------------------
D-7-777-7-777-9-10---------------
A------------------888-888888888-
E--------------------------------

Chorus
G-----------------------------
D-----------------------------
A-3-3-----5-5-----3-3-------5-
E-----3-3-----5-5-----3-1-3---

Solo
G------12---11----------
D-----------------------
A-9h10----9----9-5-5-55-
E-----------------------

G-------7---------
D---9--7---7------
A--9--5---7-----7-
E-7------5--0-7---

G------12---11----------
D-----------------------
A-9h10----9----9-5-5-55-
E-----------------------

G-------7---------
D---9--7---7------
A--9--5---7-----7- x3
E-7------5--0-7---


Outro
G-------------------------------7--------7---7----------------------------------
D-------------------------------------------------------------------3-1---------
A-3-3-----5-5-----3-3-------5-5---5-5--5---5----3-3-----5-5-----3-3-----3-2---5-
E-----3-3-----5-5-----3-1-3-------------------------3-3-----5-5-------------3---



Get this song at amazon.com      Ebay     Ringtones Ringtones  


Learn to play: Songwriting, Piano, Harmonica, Guitar
More Red Hot Chili Peppers lyrics available at Muzikum

Related Red Hot Chili Peppers Bass Tabs

By The Way (live) bass
They're Red Hot bass
So Much I bass
Castles Made Of Sand bass
Otherside ( Correct ) bass
Awakening bass
Religion bass
Punk Rock Classic bass
Dont Forget Me bass
Shallow Be Thy Game bass
Flea Solo (@ Multi-show Viva) bass
Midnight bass
Hey bass
Save The Population bass
Skinny Sweety Man bass
By The Way (tabbed From Notes) bass
Dani Califoina bass
Hump De Bump bass
Quick Jam bass
Dani Calofnia bass


Guitar Tabs









All tabs are property and copyright of their owners. All tabs provided for educational purposes only. Privacy Policy, DMCA