Red Hot Chili Peppers

Californication(correct) Bass Tabs



More from Red Hot Chili Peppers

Red Hot Chili Peppers Tabs
Red Hot Chili Peppers Chords
Red Hot Chili Peppers Bass
Red Hot Chili Peppers Lyrics




Intro

G|-----9-9-9-7h9---------7-7----|-----9-9-9-7h9--------10-10-7-|
D|-7-7-----------10----------10-|-7-7-----------10-------------|
A|-------------------8-8--------|------------------8-8---------|
E|------------------------------|------------------------------|


Verse 4X

G|-----9-9-9-7h9---------7-7----|-----9-9-9-7h9--------10-10-7-|
D|-7-7-----------10----------10-|--7-7----------10-------------|
A|-------------------8-8--------|------------------8-8---------|
E|------------------------------|------------------------------|X2

G|--------------------------------------------|
D|--------------------------------------------|
A|-3-3-3-3----------------------------5-5-5-5-|
E|------------3-3-3-3------1-1-1-1------------|

Prechorus 1

G|------------------|--------------------|------------------|-------7/9-7------|
D|-7-777-77-77-9-10-|------------10-9----|-7-777-77-77-9-10-|-------------10---|
A|------------------|-8-888-88-8------10-|------------------|-8-888----------8-|
E|------------------|--------------------|------------------|------------------|


G|------------------|--------------------|
D|-7-777-77-77-9-10-|------------10-9----|
A|------------------|-8-888-88-8------10-|
E|------------------|--------------------|x3

G|------------------|--------------------|
D|-7-777-77-77-9-10-|--------------------|
A|------------------|-8-888-88-888888888-|
E|------------------|--------------------|

Chorus

G|--------------------|--------------------------|
D|--------------------|--------------------------|
A|-3-3-------5-5------|-3-3--------555--5h7--5h7-|
E|------3-3-------5-5-|------3-1-3---------------|

G|--------------------|---------------|
D|--------------------|---------------|
A|-3-3-------5-5------|-3-3--------5~-|
E|------3-3-------5-5-|------3-1-3----|

Verse

G|-----9-9-9-7h9---------7-7----|-----9-9-9-7h9--------10-10-7-|
D|-7-7-----------10----------10-|--7-7----------10-------------|
A|-------------------8-8--------|------------------8-8---------|
E|------------------------------|------------------------------|X2

G|--------------------------------------------|
D|--------------------------------------------|
A|-3-3-3-3----------------------------5-5-5-5-|
E|------------3-3-3-3------1-1-1-1------------|

Prechorus 2

G|------------------|--------------------|------------------|--------------------|
D|-7-777-77-77-9-10-|------------10-9----|-7-777-77-77-9-10-|-------10-10-9------|
A|------------------|-8-888-88-8------10-|------------------|-8-888---------10-8-|
E|------------------|--------------------|------------------|--------------------|

G|------------------|--------------------|------------------|-----------------------|
D|-7-777-77-77-9-10-|------------10-9----|-7-777-77-77-9-10-|------------10h12-9----|
A|------------------|-8-888-88-8------10-|------------------|-8-888-88-8---------10-|
E|------------------|--------------------|------------------|-----------------------|

G|------------------|--------------------|------------------|-----/101010101010-|
D|-7-777-77-77-9-10-|------------10-9----|-7-777-77-77-9-10-|-------------------|
A|------------------|-8-888-88-8------10-|------------------|-8-88--------------|
E|------------------|--------------------|------------------|-------------------|

Chorus #2

G|--------------------|------------------------7---7-7-|
D|--------------------|--------------------------------|
A|-3-3-------5-5------|-3-3---------5--5-5-5-5---5-----|
E|------3-3-------5-5-|------3-1-3---------------------|

G|--------------------|--------------------|
D|--------------------|-----3-1------------|
A|-3-3-------5-5------|-3-3-----3-1-----5~-|
E|------3-3-------5-5-|-------------3-1----|


Solo

G|--------12---11---------------|
D|------------------------------|
A|-9h10------9----9---5--5--5-5-|
E|------------------------------|x2

G|-----------7------------|
D|-----9---7------7-------|
A|---9---5------7-------7-|
E|-7----------5-----0-7---|

G|--------12---11---------------|
D|------------------------------|
A|-9h10------9----9---5--5--5-5-|
E|------------------------------|x2

G|-----------7------------|
D|-----9---7------7-------|
A|---9---5------7-------7-|
E|-7----------5-----0-7---|x3

Intro

G|-----9-9-9-7h9---------7-7----|-----9-9-9-7h9--------10-10-7-|
D|-7-7-----------10----------10-|-7-7-----------10-------------|
A|-------------------8-8--------|------------------8-8---------|
E|------------------------------|------------------------------|

Verse

G|-----9-9-9-7h9---------7-7----|-----9-9-9-7h9--------10-10-7-|
D|-7-7-----------10----------10-|--7-7----------10-------------|
A|-------------------8-8--------|------------------8-8---------|
E|------------------------------|------------------------------|X2

G|--------------------------------------------|
D|--------------------------------------------|
A|-3-3-3-3----------------------------5-5-5-5-|
E|------------3-3-3-3------1-1-1-1------------|

Prechorus #3

G|------------------|--------------------|------------------|-----------------|
D|-7-777-77-77-9-10-|------------10-9----|-7-777-77-77-9-10-|-----------------|
A|------------------|-8-888-88-8------10-|------------------|-8-7-7-5-5-------|
E|------------------|--------------------|------------------|-----------6-5-3-|

G|------------------|--------------------|------------------|------------------------|
D|-7-777-77-77-9-10-|------------10-9----|-7-777-77-77-9-10-|-------------10h12-9----|
A|------------------|-8-888-88-8------10-|------------------|-8--888-88-8---------10-|
E|------------------|--------------------|------------------|------------------------|

G|------------------|--------------------|------------------|-----/101010101010-|
D|-7-777-77-77-9-10-|------------10-9----|-7-777-77-77-9-10-|-------------------|
A|------------------|-8-888-88-8------10-|------------------|-8-88--------------|
E|------------------|--------------------|------------------|-------------------|

Chorus #2

G|--------------------|------------------------7---7-7-|
D|--------------------|--------------------------------|
A|-3-3-------5-5------|-3-3---------5--5-5-5-5---5-----|
E|------3-3-------5-5-|------3-1-3---------------------|

G|--------------------|--------------------|
D|--------------------|-----3-1------------|
A|-3-3-------5-5------|-3-3-----3-1-----5~-|
E|------3-3-------5-5-|-------------3-1----|



Get this song at amazon.com      Ebay     Ringtones Ringtones  


Learn to play: Songwriting, Piano, Harmonica, Guitar
More Red Hot Chili Peppers lyrics available at Muzikum

Related Red Hot Chili Peppers Bass Tabs

123456 bass
Fire bass
Lovin And Touchin bass
No Chump Love Sucker bass
Show Me Your Soul bass
Slowly Deeply bass
Bass Solo bass
What It Is (aka Nina's Song) bass
Nobody Wierd Like Me bass
Off The Map Around The World bass
Deep Kick bass
So Much I bass
Stone Cold Bush bass
Battleship bass
Scar Tissue bass
Carbon bass
Under The Bridge bass
Cant Stop bass
By The Way bass
Rolling Sly Stone bass


Guitar Tabs









All tabs are property and copyright of their owners. All tabs provided for educational purposes only. Privacy Policy, DMCA

Online converter - videoconverter.com