Red Hot Chili Peppers

Californication (Version 2) Tabs



More from Red Hot Chili Peppers

Red Hot Chili Peppers Tabs
Red Hot Chili Peppers Chords
Red Hot Chili Peppers Bass
Red Hot Chili Peppers Lyrics

#-----------------------------PLEASE NOTE-------------------------------------#
#This OLGA file is the author's own work and represents their interpretation  #
#of the song. You may only use this file for private study, scholarship, or   #
#research. Remember to view this file in Courier, or some other monospaced    #
#font. See http://www.olga.net/faq/ for more information.                     #
#-----------------------------------------------------------------------------#



Subject: r/red_hot_chili_peppers/californication.btab


I have played this song several different ways, and I believe I found = the best
way to play it.  Of course, Flea does quick fills, hammer-ons & = pull-offs
that I won't even try to transcribe, but this will get you comfortable
with the song, and you can take it from there.

Intro & Verses
                             (ho/po)
G----------------------9---9---9-7---|----------------------7---7--------= --|
D----------------------------------9-|------------------------------10---= --|
A--0-(let ring)----------------------|--8 (let = ring)-----------------------|
E------------------------------------|-----------------------------------= --|
                             (ho/po)                                  =
slide
G----------------------9---9---9-7---|----------------------10---10---7/5= --|
D----------------------------------9-|-----------------------------------= --|
A--0-(let ring)----------------------|--8 (let = ring)-----------------------|
E------------------------------------|-----------------------------------= --|

G---------5-----------------------------------7--|
D-------5------------5----------3---------7------|
A----3------------5----------3--------5----------|
E---------------3----------1---------------------|

Bridge
G-----------------------------------------------|
D-----------------------------------------------|
A---0--0--0--0--0--0--2-3--------------3-2---0--|
E-------------------------1--1--1--1-1-----3----|

The last few notes are different each time the
measure is played.  Have fun with it!!

Chorus
G-------------------------------------------------|
D-------------------------------------------------|
A--3--3--3--3-------------5--5--5--5--------------|
E-------------3--3--3--3--------------5--5--5--5--|

 








G-------------------------------------------------|
D----------------------------------------7-----7--|
A--3--3--3--3-------------5--5--5--5--------------|
E-------------3--3--3--3--------------5-----5-----|

Solo       p/o         p/o           p/o         p/o
G--------------------------|--------------------------|
D--4--4--4--4--------------|--4--4--4--4--------------|
A--------------5-----------|--------------5-----------|
E--------------------------|--------------------------|
play above twice

G-----------------7-----------------9-----|
D--------------7-----------7-----9-----9--|
A-----------5-----------7-----7-----------|
E--7--5--7-----------5--------------------|
play above once, repeat first part, then play above 3x.



Thats pretty much it.  Flea has a lot of fills here and there that every
one will improvise to their liking.  The solo above is just the base
notes that I use.  Each measure is played slightly different, but, of
course, that's the beauty of jamming & improvisation!

Enjoy...

-BrianK
http://www.tjcoe.com

 








------=_NextPart_000_0001_01C1A219.A5A942E0--
Get this song at amazon.com      Ebay     Ringtones Ringtones  


Learn to play: Songwriting, Piano, Harmonica, Guitar
More Red Hot Chili Peppers lyrics available at Muzikum

Related Red Hot Chili Peppers Tabs

True Man Dont Kill Coyote tabs
Tearjerker tabs
Greeting Song tabs
American Ghostdance tabs
Tiny Dancer tabs
Especially In Michigan Bass tabs
Storm In A Teacup Bass tabs
Melancholy Mechanics tabs
Coffee Shop tabs
Wet Sand Intro tabs
We Believe Bass tabs
Pretty Little Ditty tabs
Savior tabs
Teatro Jam tabs
By The Way Guitar Tab tabs
Funky Monks Bass tabs
So Much I Bass tabs
What Is Soul (2) tabs
Californication Live tabs
Stadium Arcadium - Jupiter Bass tabs


Guitar Tabs









All tabs are property and copyright of their owners. All tabs provided for educational purposes only. Privacy Policy, DMCA