Red Hot Chili Peppers

Californication(100%correct Really) Bass Tabs



More from Red Hot Chili Peppers

Red Hot Chili Peppers Tabs
Red Hot Chili Peppers Chords
Red Hot Chili Peppers Bass
Red Hot Chili Peppers Lyrics




heeps of people have put in this tab missing out heeps of notes,
so here it is with all the notes

h=hammer on
p=pull of

intro
G--------9--9-7h9p---------10-10-7
D--7-7-7-----------10-------------
A--------------------8-8-8--------
E--------------------------------- x4
then
G------------------------------
D------------------------------
A--3-3-3-3---------------------
E----------3-3-3-3-1-1-1-1--1-1 x2

verse
G----------------------------------------
D-7-7-7-7-7-7-7-9-10------------10-10-9-7
A---------------------8-8-8-8-8---------- x6
E----------------------------------------
then
G----------------------------------
D----------------------------------
A-3-3-3-3----------5-5-5-5---------
E---------3-3-3-3-----------5-5-5-5 x2

at the solo play verse

enjoy



Get this song at amazon.com      Ebay     Ringtones Ringtones  


Learn to play: Songwriting, Piano, Harmonica, Guitar
More Red Hot Chili Peppers lyrics available at Muzikum

Related Red Hot Chili Peppers Bass Tabs

Green Heaven bass
Funky Monks bass
Walkabout bass
This Is The Place (100000000000000000000000% Correct) bass
Look Around bass
This Is The Place bass
Mommy Wheres Daddy bass
My Lovely Man bass
Baby Appea bass
Baby Apeal bass
All Around The World bass
Tear bass
Spell Correctly bass
Shallow Be Thy Game bass
Black Cross bass
Flea:funk Song bass
F U bass
Magic Johnson bass
Catholic School Girls Rule bass
Why Don't You Love Me - Bass Tab bass


Guitar Tabs









All tabs are property and copyright of their owners. All tabs provided for educational purposes only. Privacy Policy, DMCA