Red Hot Chili Peppers

Californication (100% Correct!) Bass Tabs



More from Red Hot Chili Peppers

Red Hot Chili Peppers Tabs
Red Hot Chili Peppers Chords
Red Hot Chili Peppers Bass
Red Hot Chili Peppers Lyrics




Artist: red hot chili peppers
Album:Californication
Bassist: Flea
Tuning: EADG


(The spaces between the #ís are a bit of a reference to the timing.
refer to
the bottom for the order of the different parts)

Part 1 (intro/ chorus)

G|-------9--9-7h9p7---------7-7------------9--9-7h9p7----------10-10-7--]
D|-7-7---------------10-----------10---7-7--------------10--------------]
A|-----------------------8-8---------------------------------8-8--------]
E|----------------------------------------------------------------------]
|-----------------------------play 3 X-------------------------------|

Part 2 (bridge)

G|---------------------------------------]
D|---------------------------------------] ONCE
A|-3-3-3-3-----------------------5-555-5-]
E|-----------3-3-3-3---1-1-1-1---trip^---]

Part 3 (interlude)

G|----------------------------------------------------------------------------]
D|7-7--9-10----10-9------7-7--9-10----9/14--12--10--9-----7-7--9-10----10-9---]
A|-----------8--------10--------------8-----------------------------8-------10]
E|----------------------------------------------------------------------------]
|---------------------------ALL OF THIS TWICE----------------------------------|

Part 4 (Dream of Califonication)

G|------------------------------------]
D|------------------------------------] ONCE
A|---7----------7-------7----------7^-]
E|-5---5-5-0-7-------5---5-5-0-7------]

Part 5

G|-------9--9-7h9p7---------7-7------------9--9-7h9p7----------10-10-7--]
D|-7-7---------------10-----------10---7-7--------------10--------------]
A|-----------------------8-8---------------------------------8-8--------]
E|----------------------------------------------------------------------]
|---------------------play this twice then what is below-------------|

G|------------------------------------------]
D|------------------------------------------]
A|-3-3-3-3-----------------------5-555-5-]
E|-----------3-3-3-3---1-1-1-1---trip^----]
|_____________________________All this two times_________________________|

Part 6 (Guitar solo)

G|------------------------------------------------------7--------7-]
D|----------------------------------------------------7--7-----7---]
A|-3-3-3----------5-5-5-------3-3-----2-3-5--5-5-----5----5--------]
E|---------3-3-3/5--------5-5------0-3-----------------------------]

G|------------------------------------------]
D|------------------------------------------]
A|5-3-3---------5-5------3-3------2--3--5---]
E|--------3-3-3------5-5------0--3----------]

Part 1
Part 2
Part 1
Part 2
Part 3
Part 4
Part 5 *twice*
Part 3
Part 4 *twice*
Part 6
Part 5
Part 3
Part 4 *twice*

This is COMPLETELY right, there is absolutely NOTHING wrong,
and if there is something wrong, I will let you cut my thumb off!



Get this song at amazon.com      Ebay     Ringtones Ringtones  


Learn to play: Songwriting, Piano, Harmonica, Guitar
More Red Hot Chili Peppers lyrics available at Muzikum

Related Red Hot Chili Peppers Bass Tabs

Jungle Man Intro bass
Flea Solo (@ Multi-show Viva) bass
This Is The Place (100000000000000000000000% Correct) bass
Fight Like A Brave bass
Quick Jam bass
By The Way (live) bass
Aeroplane bass
By The Way::::::101% Correct, No Questions Asked bass
Blues For Meister bass
Suck My Kiss (correct) bass
Ready Me bass
Out Of Range bass
On Murcury bass
One Of Fleas Funky Solos bass
Otherside ( Correct ) bass
Cabron bass
Easily bass
Ill Be Your Domino bass
I Like Dirt bass
I Feel Love bass


Guitar Tabs









All tabs are property and copyright of their owners. All tabs provided for educational purposes only. Privacy Policy, DMCA