Red Hot Chili Peppers

Cabron (Version 2) Tabs



More from Red Hot Chili Peppers

Red Hot Chili Peppers Tabs
Red Hot Chili Peppers Chords
Red Hot Chili Peppers Bass
Red Hot Chili Peppers Lyrics

#-----------------------------PLEASE NOTE-------------------------------------#
#This OLGA file is the author's own work and represents their interpretation  #
#of the song. You may only use this file for private study, scholarship, or   #
#research. Remember to view this file in Courier, or some other monospaced    #
#font. See http://www.olga.net/faq/ for more information.                     #
#-----------------------------------------------------------------------------#


Subject: r/red_hot_chili_peppers/cabron.tab


Artist:	Red Hot Chili Peppers
Song:	Cabron
Album:	By The Way
Tabber:	Andy K
Notes:	Standard Tuning. Capo on the 7th fret. This is most of the song, =
though in some verses there is definately something
	going on up high on the top two strings which I can't quite pick out. =
Pretty sure that the rest is=20
	close enough to the real thing. Chords - If it says G(D) then your =
playing a G, but because of the capo
	it is a D. This is for people who haven't got a capo and wanna strum =
along.

Intro:

G(D) Em(Bm) G(D) Em(Bm) C(G)			    C(G)                    D(A)=20

|--3--|--0--|--3--|--0--|------------3------------|------------3-----------|-2--
|--3--|--0--|--3--|--0--|----1----------1---------|---1-----------1--------|-3--
|--4--|--0--|--4--|--0--|-------0-------0-------0-|------0--------0------0-|-2--
|--5--|--2--|--5--|--2--|-2--------2--------2-----|-2-------2---------2----|----
|--5--|--2--|--5--|--2--|-3-----------------------|-3----------------------|----
|--3--|--0--|--3--|--0--|-------------------------|------------------------|----

Main riff:

G(D)                          Em(Bm) =20
               =20
|---------------|-3-3-3-3-3-3-|---------------|-0-0-0-0-0-0-|
|-0-------------|-3-3-3-3-3-3-|-0-------------|-0-0-0-0-0-0-|
|----2--0-----0-|-0-0-0-0-0-0-|----2--0-------|-0-0-0-0-0-0-|
|----------2----|-0-0-0-0-0-0-|----------2----|-2-2-2-2-2-2-|
|---------------|-2-2-2-2-2-2-|-------------2-|-2-2-2-2-2-2-|
|---------------|-3-3-3-3-3-3-|---------------|-0-0-0-0-0-0-|

Play this for the chorus (Cabron cabron etc) then twice for the verse. =
Then:

 








Pre-chorus:=20

C(G)                      D(A)

|-3-3-3-3-3-3-3-3-3-3-3-3-|-2-2-2-2-2-2-2-2-2-2-2-2-|
|-1-1-1-1-1-1-1-1-1-1-1-1-|-3-3-3-3-3-3-3-3-3-3-3-3-|
|-0-0-0-0-0-0-0-0-0-0-0-0-|-2-2-2-2-2-2-2-2-2-2-2-2-|
|-2-2-2-2-2-2-2-2-2-2-2-2-|-0-0-0-0-0-0-0-0-0-0-0-0-|
|-3-3-3-3-3-3-3-3-3-3-3-3-|-------------------------|
|-------------------------|-------------------------|

Play the verse and pre-chorus twice more. The second two times John =
plays something higher up
Any input on that is very welcome!

On the third time, play the pre-chorus 3 times then back to the main =
riff and do it all again.

Next comes the slide solo, over the main riff:

|--------------|     |-------|
|-12/19--1912-|     |-1210-|
|--------------|  x4 |-------|
|--------------|     |-------|
|--------------|     |-------|
|--------------|     |-------|

Back into the pre-chorus 3 more times and then a chorus.
Next the verse and chorus with the first part of the slide solo behind =
them.
Finish on:

 








B|--12/19---|
Get this song at amazon.com      Ebay     Ringtones Ringtones  


Learn to play: Songwriting, Piano, Harmonica, Guitar
More Red Hot Chili Peppers lyrics available at Muzikum

Related Red Hot Chili Peppers Tabs

Give It Away Bass tabs
Cant Stop Intro tabs
Skinny Sweety Man tabs
Apache Rose Peacock tabs
Brandy tabs
Tiny Dancer Live Cover tabs
Warped tabs
Don t forget me tabs
Good Time Boys tabs
The Greeting Song tabs
Time tabs
Teenager In Love (2) tabs
Dani California Guitar Tab tabs
Get Up And Jump Intro tabs
By The Way Guitar Tab tabs
Snow tabs
Quixoticelixer tabs
Blue Monday tabs
Scar Tissue tabs
Californication (the Ultimate Tab) tabs


Guitar Tabs









All tabs are property and copyright of their owners. All tabs provided for educational purposes only. Privacy Policy, DMCA