Red Hot Chili Peppers

By The Way (tabbed From Notes) Bass Tabs



More from Red Hot Chili Peppers

Red Hot Chili Peppers Tabs
Red Hot Chili Peppers Chords
Red Hot Chili Peppers Bass
Red Hot Chili Peppers Lyrics




This song is in dropped D tuning (D-A-D-G)

[Bass Figure 1]

G-------------------
D-15x8--14x8--------
A-------------12x16-
D-------------------

[Bass Figure 2]

G-17x8--21x8----------------------5-17x17--
D------------19x15-----10x8--7x14----------
A------------------8x8---------------------
D------------------------------------------

G-21x8-----------
D---------19x15--
A----------------
D----------------

[Bass Figure 3]

G----------------------------------------------------
D---------3-x------------------3----------------3-x--
A-----3-5----3-5-0-3----3-5-0-0-3-x---------3-5------
D-0-0----------------0-0------------3-5--0-0---------

G------------------------------------------------
D-------------3-x--------------------------------
A----------3-5----3-5-0-3---3-5-5-5-6-6-6-6-6-6--
D-3-5-0-0----------------0-0---------------------

Bass Figure 3 x3

[Second Chorus]

G----------------------------------------
D-------10x7-12x12-10------10x8-7x7-8x6--
A-8x5-12-------------12-8x5--------------
D----------------------------------------

Bass Figure 3 x4
Bass Figure 1
Bass Figure 3

[Third Chorus]
Start with second chorus, but add on:

G---------------------------------------------
D--------8-9-10x6-8-10-8-12x11-14-12-10x7-----
A-10-8x4----------------------------------8x5-
D---------------------------------------------

G-----------
D-0-7x7-8x5-
A-----------
D-----------

Outro is Bass Tacet, except last note, which is:

G------
D-12*--
A------
D------



Get this song at amazon.com      Ebay     Ringtones Ringtones  


Learn to play: Songwriting, Piano, Harmonica, Guitar
More Red Hot Chili Peppers lyrics available at Muzikum

Related Red Hot Chili Peppers Bass Tabs

Crosstown Traffic bass
Backwoods3 bass
Time bass
Emit Remmus bass
Can't Stop Good I Think bass
123456 bass
Californication (100% Correct!) bass
Soul To Squeeze bass
Show Me Your Soul bass
Woodstock Intro Bass Solo bass
Bunker Hill bass
Hyde Park Bass Solo #2 bass
Death Of A Martian bass
We Believe bass
Dani California (turned Into Tabs From Notes) bass
All Around The World (excently Perfect) bass
Pea bass
Strip My Mind bass
Otherside bass
Porcelain bass


Guitar Tabs









All tabs are property and copyright of their owners. All tabs provided for educational purposes only. Privacy Policy, DMCA