Red Hot Chili Peppers

By The Way(improved) Bass Tabs



More from Red Hot Chili Peppers

Red Hot Chili Peppers Tabs
Red Hot Chili Peppers Chords
Red Hot Chili Peppers Bass
Red Hot Chili Peppers Lyrics




h=hammer on
p=pull of
this is not the real intro but i think it sounds much better
Intro
G-17171717171717-17171717171717---------------------------------
D-15151515151515-14141414141414-141414141414141414141414141414
A-------------------------------121212121212121212121212121212 X4
D-------------------------------------------------------------


G------------------------------------------------------------------
D---------------3-------------------------------3------------------
A---------3h5---------3h5-----0h3-----------3h5-------0-0h3--------
D-0---0-----------------------------0---0-----------------------0h3
X both by 4
G------------------------------------------------------------------
D-------------3----------------------------------------------------
A---------3h5---------3h5-----0h3-----------3-5---5---5-6-6-6-6-6-6
D-0---0-----------------------------0---0--------------------------


Chorus
G---------------------------------------------------------------
D-3333333-3/10101010101010-1212121212121212121212121212-1210----
A--------3--------------------------------------------------1210
D---------------------------------------------------------------

G-----------------------------------------
D----------1010101010101010-7777777-7-8888
A-88888888--------------------------------
D-----------------------------------------



G-------------------------------------------------------------------
D----------------3-------------------------------3------------------
A----------3h5---------3h5-----0h3-----------3h5-------0-0h3--------
D--0---0-----------------------------0---0-----------------------0h3
X both by 4
G-------------------------------------------------------------------
D--------------3----------------------------------------------------
A----------3h5---------3h5-----0h3-----------3-5---5---5-6-6-6-6-6-6
D--0---0-----------------------------0---0--------------------------


G-17171717171717-17171717171717-------------------------------
D-15151515151515-14141414141414-141414141414141414141414141414
A-------------------------------121212121212121212121212121212 X2
D-------------------------------------------------------------


G-----------------------------------
D-33333333--------------------------
A----------33333333-0000000000000000 X2
D-----------------------------------


G-------------------------------------------------------------------
D----------------3-------------------------------3------------------
A----------3h5---------3h5-----0h3-----------3h5-------0-0h3--------
D--0---0-----------------------------0---0-----------------------0h3
X4
G--------------------------------------------------------------------
D-=------------3------------------------------------------------------
A----------3h5---------3h5-----0h3-----------3-5---5---5-6-6-6-6-6-6--
D--0---0-----------------------------0---0----------------------------



Chorus
G---------------------------------------------------------------
D-3333333-3/10101010101010-1212121212121212121212121212-1210----
A--------3--------------------------------------------------1210
D---------------------------------------------------------------

G-----------------------------------------
D----------1010101010101010-7777777-7-8888
A-88888888--------------------------------
D-----------------------------------------



Get this song at amazon.com      Ebay     Ringtones Ringtones  


Learn to play: Songwriting, Piano, Harmonica, Guitar
More Red Hot Chili Peppers lyrics available at Muzikum

Related Red Hot Chili Peppers Bass Tabs

Pea (live) bass
I Could Die For You bass
Magic Johnson bass
Animal Bar Bass bass
Backwoods3 bass
Look Around bass
One Hot Minute bass
C'mon Girl bass
Hump De Bump Bass bass
Walkin On Down The Road bass
We Believe bass
Off The Map Pea bass
After Hours bass
Save The Population bass
Tell Me Baby (10000% Correct) bass
Suck My Kiss (in Detail) bass
Storm In A Teacup bass
Easily bass
Rolling Sly Stone Live bass
Flea - Bass Solo bass


Guitar Tabs









All tabs are property and copyright of their owners. All tabs provided for educational purposes only. Privacy Policy, DMCA