Red Hot Chili Peppers

By The Way (correct) Bass Tabs



More from Red Hot Chili Peppers

Red Hot Chili Peppers Tabs
Red Hot Chili Peppers Chords
Red Hot Chili Peppers Bass
Red Hot Chili Peppers Lyrics




During the slow part u play this
G ---------------------------------------------------------------
D ---------------------------------------------------------------
A 8-8-8-8-8-8-8-8-----------------0-0-0-0-0-0-0-0-0-0-0-0-0-0-0-0
E ----------------8-8-8-8-8-8-8-8--------------------------------

And this is what you play when the song speeds up
G -------------------
D --------3----------
A 5-5-3-5---5-3-4-5-5
E -------------------



Get this song at amazon.com      Ebay     Ringtones Ringtones  


Learn to play: Songwriting, Piano, Harmonica, Guitar
Also available at Muzikum: Red Hot Chili Peppers - By The Way Correct lyrics

Related Red Hot Chili Peppers Bass Tabs

Funky Monks bass
Readymade bass
Mellowship Slinky In B Flat bass
Soul To Squeeze bass
By The Way (Version 2) bass
Off The Map : Jam bass
This Is The Place(bueno) bass
Body Of Water bass
Dani California (perfect) bass
Tell Me Baby (10000% Correct) bass
Bunker Hill bass
Suck My Kiss (in Detail) bass
All Around The World bass
Storm In A Teacup bass
FelaĊ½s Cock bass
Dosed (perfect ;) bass
Song: Savior bass
Easily With Triads bass
Snow Hey Oh bass
Blues For Meister bass


Guitar Tabs









All tabs are property and copyright of their owners. All tabs provided for educational purposes only. Privacy Policy, DMCA