Red Hot Chili Peppers

By The Way (Version 2) Tabs



More from Red Hot Chili Peppers

Red Hot Chili Peppers Tabs
Red Hot Chili Peppers Chords
Red Hot Chili Peppers Bass
Red Hot Chili Peppers Lyrics

#-----------------------------PLEASE NOTE-------------------------------------#
#This OLGA file is the author's own work and represents their interpretation  #
#of the song. You may only use this file for private study, scholarship, or   #
#research. Remember to view this file in Courier, or some other monospaced    #
#font. See http://www.olga.net/faq/ for more information.                     #
#-----------------------------------------------------------------------------#


Subject: r/red_hot_chili_peppers/by_the_way.btab


Song name: By the way
Band name: Red hot chili peppers

If you need to contact me my email address is: 
rhcp_flea_bass_king@hotmail.com

I think this tab is about right. ITS DROP D TUNING!!!!!!!!!!!!!!!!!!!!!:
D   A   D   G

/=slide

g---------------------------------------------------------------------------- 
   X4
d--3-3-3-3-3-3-3-3-2-2-2-2-2-2-2-2-------------------------------------------
a------------------------------------------0-0-0-0-0-0-0-0-0-0-0-0-0-0-0-0---
d-------------------------------------------------------------------------------

g--------------------------------------   X3
d------------3-------------------------
a-------3-5----5-3-5-----------------
d--0-0-----------------5-4-3-0------



g--------------------------------------   X1
d-------------3------------------------
a--------3-5----5-3-5/6-6-6-6------
d--0-0--------------------------------



g--------------------------------------   X3
d------------3-------------------------
a-------3-5----5-3-5-----------------
d--0-0-----------------5-4-3-0------



g--------------------------------------   X1
d-------------3------------------------
a--------3-5----5-3-5/6-6-6-6------
d--0-0--------------------------------



g--------------------------------------   X3
d------------3-------------------------
a-------3-5----5-3-5-----------------
d--0-0-----------------5-4-3-0------



g--------------------------------------   X1
d-------------3------------------------
a--------3-5----5-3-5/6-6-6-6------
d--0-0--------------------------------



g--------------------------------------   X3
d------------3-------------------------
a-------3-5----5-3-5-----------------
d--0-0-----------------5-4-3-0------



g--------------------------------------   X1
d-------------3------------------------
a--------3-5----5-3-5/6-6-6-6------
d--0-0--------------------------------



g------------------------------------------------------------------------------ 
   X2
d--3-3-3-3-3-3-3-3-2-2-2-2-2-2-2-2-------------------------------------------
a------------------------------------------0-0-0-0-0-0-0-0-0-0-0-0-0-0-0-0---
d------------------------------------------------------------------------------

This is the wierd bit - dont play

g--------------------------------------   X3
d------------3-------------------------
a-------3-5----5-3-5-----------------
d--0-0-----------------5-4-3-0------



g--------------------------------------   X1
d-------------3------------------------
a--------3-5----5-3-5/6-6-6-6------
d--0-0--------------------------------

 










g--------------------------------------   X3
d------------3-------------------------
a-------3-5----5-3-5-----------------
d--0-0-----------------5-4-3-0------



g--------------------------------------   X1
d-------------3------------------------
a--------3-5----5-3-5/6-6-6-6------
d--0-0--------------------------------



g--------------------------------------   X3
d------------3-------------------------
a-------3-5----5-3-5-----------------
d--0-0-----------------5-4-3-0------



g--------------------------------------   X1
d-------------3------------------------
a--------3-5----5-3-5/6-6-6-6------
d--0-0--------------------------------



g------------------------------------------------------------------------------ 
   X4
d--3-3-3-3-3-3-3-3-2-2-2-2-2-2-2-2-------------------------------------------
a------------------------------------------0-0-0-0-0-0-0-0-0-0-0-0-0-0-0-0---
d-----------------------------------------------------------------------------



g--------------------------------------   X3
d------------3-------------------------
a-------3-5----5-3-5-----------------
d--0-0-----------------5-4-3-0------



g--------------------------------------   X1
d-------------3------------------------
a--------3-5----5-3-5/6-6-6-6------
d--0-0--------------------------------



g--------------------------------------   X3
d------------3-------------------------
a-------3-5----5-3-5-----------------
d--0-0-----------------5-4-3-0------



g--------------------------------------   X1
d-------------3------------------------
a--------3-5----5-3-5/6-6-6-6------
d--0-0--------------------------------



g--------------------------------------   X3
d------------3-------------------------
a-------3-5----5-3-5-----------------
d--0-0-----------------5-4-3-0------



g--------------------------------------   X1
d-------------3------------------------
a--------3-5----5-3-5/6-6-6-6------
d--0-0--------------------------------



g------------------------------------------------------------------------------ 
   X6
d--3-3-3-3-3-3-3-3-2-2-2-2-2-2-2-2-------------------------------------------
a------------------------------------------0-0-0-0-0-0-0-0-0-0-0-0-0-0-0-0---
d------------------------------------------------------------------------------

Finishing note:

g---------
d----0----
a---------
d---------

Have fun. Dan

 








Get this song at amazon.com      Ebay     Ringtones Ringtones  


Learn to play: Songwriting, Piano, Harmonica, Guitar
More Red Hot Chili Peppers lyrics available at Muzikum

Related Red Hot Chili Peppers Tabs

By The Way tabs
Show Me Your Soul tabs
Parallell Universe tabs
This Velvet Glove (3) tabs
I Could Die For You (2) tabs
Animal Bar tabs
Velvet Glove tabs
Stinky Sweaty Man tabs
Fire tabs
Cant Stop Intro tabs
Funny Face Bass tabs
Tell Me Baby tabs
The Brothers Cup tabs
Two-note Chord/melody Idea tabs
Animal Bar Solo tabs
I Like Dirt tabs
Purple Stain tabs
Midnight tabs
Dosed tabs
Dceed tabs


Guitar Tabs









All tabs are property and copyright of their owners. All tabs provided for educational purposes only. Privacy Policy, DMCA

Online converter - videoconverter.com