Red Hot Chili Peppers

By The Way Guitar Tab Tabs



More from Red Hot Chili Peppers

Red Hot Chili Peppers Tabs
Red Hot Chili Peppers Chords
Red Hot Chili Peppers Bass
Red Hot Chili Peppers Lyrics




Intro

e|-------------------------|-------------------------|
B|-------------------------|-------------------------|
G|-------------------------|-------------------------|
D|-10-10-10-10-10-10-10-10-|-10-10-10-10-10-10-10-10-|
A|--8--8--8--8--8--8--8--8-|--7--7--7--7--7--7--7--7-|
E|-------------------------|-------------------------|

e|-----------------|-----------------|
B|-----------------|-----------------|
G|-----------------|-----------------|
D|-----------------|-----------------|
A|-7-7-7-7-7-7-7-7-|-7-7-7-7-7-7-7-7-|
E|-5-5-5-5-5-5-5-5-|-5-5-5-5-5-5-5-5-|

Verse

e|-------------------------|-------------------------|
B|-------------------------|-------------------------|
G|-10-10-10-10-10-10-10-10-|--9--9--9--9--9--9--9--9-|
D|-10-10-10-10-10-10-10-10-|-10-10-10-10-10-10-10-10-|
A|--8--8--8--8--8--8--8--8-|--7--7--7--7--7--7--7--7-|
E|-------------------------|-------------------------|


e|-----------------|-----------------|
B|-----------------|-----------------|
G|-----------------|---------9-9-7-7-|
D|-7-7-7-7-7-7-7-7-|-7-7-7-7-7-7-7-7-|
A|-7-7-7-7-7-7-7-7-|-7-7-7-7-7-7-7-7-|
E|-----------------|-----------------|


e|-------------------------|-------------------------|
B|-------------------------|-------------------------|
G|-------------------------|-------------------------|
D|-10-10-10-10-10-10-10-10-|-10-10-10-10-10-10-10-10-|
A|--8--8--8--8--8--8--8--8-|--7--7--7--7--7--7--7--7-|
E|-------------------------|-------------------------|


e|-----------------|-----------------|
B|-----------------|-----------------|
G|-----------------|-----------------|
D|-----------------|-----------------|
A|-7-7-7-7-7-7-7-7-|-7-7-7-7-7-7-7-7-|
E|-5-5-5-5-5-5-5-5-|-5-5-5-5-5-5-5-5-|


e|-------------------------|-------------------------|
B|-------------------------|-------------------------|
G|-10-10-10-10-10-10-10-10-|--9--9--9--9--9--9--9--9-|
D|-10-10-10-10-10-10-10-10-|-10-10-10-10-10-10-10-10-|
A|--8--8--8--8--8--8--8--8-|--7--7--7--7--7--7--7--7-|
E|-------------------------|-------------------------|


e|-----------------|----------------------|
B|-----------------|-------10-10-10-10-10-|
G|---------------9-|-9-9-9--9--9--9--9--9-|
D|-7-7-7-7-7-7-7-7-|-7-7-7--7--7--7--7--7-|
A|-7-7-7-7-7-7-7-7-|-7-7-7--0--0--0--0--0-|
E|-----------------|----------------------|

Bridge

e|-x-x-x-x-x-x-x-x-x-x-x-x-x-x-x-x-|-x-x-x-x-x-x-x-x-x-x-x-x-x-x-x-x-|
B|-x-x-x-x-x-x-x-x-x-x-x-x-x-x-x-x-|-x-x-x-x-x-x-x-x-x-x-x-x-x-x-x-x-|
G|-x-x-x-x-x-x-x-x-x-x-x-x-x-x-x-x-|-x-x-x-x-x-x-x-x-x-x-x-x-x-x-x-x-|
D|-x-x-x-x-x-x-x-x-x-x-x-x-x-x-x-x-|-x-x-x-x-x-x-x-x-x-x-x-x-x-x-x-x-|
x3
A|-x-x-x-x-x-x-x-x-x-x-x-x-x-x-x-x-|-x-x-x-x-x-x-x-x-x-x-x-x-x-x-x-x-|
E|-x-x-x-x-x-x-x-x-x-x-x-x-x-x-x-x-|-x-x-x-x-x-x-x-x-x-x-x-x-x-x-x-x-|

e|-x-x-x-x-x-x-x-x-x-x-x-x-x-x-x-x-|-x-x-x-x-x-x-x-x-x-------------------|
B|-x-x-x-x-x-x-x-x-x-x-x-x-x-x-x-x-|-x-x-x-x-x-x-x-x-x-13-x-13-x-13-x-13-|
G|-x-x-x-x-x-x-x-x-x-x-x-x-x-x-x-x-|-x-x-x-x-x-x-x-x-x-------------------|
D|-x-x-x-x-x-x-x-x-x-x-x-x-x-x-x-x-|-x-x-x-x-x-x-x-x-x-------------------|
A|-x-x-x-x-x-x-x-x-x-x-x-x-x-x-x-x-|-x-x-x-x-x-x-x-x-x-------------------|
E|-x-x-x-x-x-x-x-x-x-x-x-x-x-x-x-x-|-x-x-x-x-x-x-x-x-x-------------------|

e|-------x-x-x-x-x-x-x-x-x-x-x-x-|-------x-x-x-x-x-x-x-x-x-x-x-x-|
B|-10-10-x-x-x-x-x-x-x-x-x-x-x-x-|-10-10-x-x-x-x-x-x-x-x-x-x-x-x-|
G|-10-10-x-x-x-x-x-x-x-x-x-x-x-x-|-10-10-x-x-x-x-x-x-x-x-x-x-x-x-|
D|-12-12-x-x-x-x-x-x-x-x-x-x-x-x-|-12-12-x-x-x-x-x-x-x-x-x-x-x-x-|
A|-------x-x-x-x-x-x-x-x-x-x-x-x-|-------x-x-x-x-x-x-x-x-x-x-x-x-|
E|-------x-x-x-x-x-x-x-x-x-x-x-x-|-------x-x-x-x-x-x-x-x-x-x-x-x-|

e|-------x-x-x-x-x-x-x-x-x-x-x-x-|-------x-x-x-x-x-------------------|
B|-10-10-x-x-x-x-x-x-x-x-x-x-x-x-|-10-10-x-x-x-x-x-13-x-13-x-13-x-13-|
G|-10-10-x-x-x-x-x-x-x-x-x-x-x-x-|-10-10-x-x-x-x-x-------------------|
D|-12-12-x-x-x-x-x-x-x-x-x-x-x-x-|-12-12-x-x-x-x-x-------------------|
A|-------x-x-x-x-x-x-x-x-x-x-x-x-|-------x-x-x-x-x-------------------|
E|-------x-x-x-x-x-x-x-x-x-x-x-x-|-------x-x-x-x-x-------------------|

e|-------x-x-x-x-x-x-x-x-x-x-x-x-|-------x-x-x-x-x-x-x-x-x-x-x-x-|
B|-10-10-x-x-x-x-x-x-x-x-x-x-x-x-|-10-10-x-x-x-x-x-x-x-x-x-x-x-x-|
G|-10-10-x-x-x-x-x-x-x-x-x-x-x-x-|-10-10-x-x-x-x-x-x-x-x-x-x-x-x-|
D|-12-12-x-x-x-x-x-x-x-x-x-x-x-x-|-12-12-x-x-x-x-x-x-x-x-x-x-x-x-|
A|-------x-x-x-x-x-x-x-x-x-x-x-x-|-------x-x-x-x-x-x-x-x-x-x-x-x-|
E|-------x-x-x-x-x-x-x-x-x-x-x-x-|-------x-x-x-x-x-x-x-x-x-x-x-x-|


e|-------x-x-x-x-x-x-x-x-x-x-x-x-|-------x-x-x-x-------------------------|
B|-10-10-x-x-x-x-x-x-x-x-x-x-x-x-|-10-10-x-x-x-x-10-10-10-10-10-10-10-10-|
G|-10-10-x-x-x-x-x-x-x-x-x-x-x-x-|-10-10-x-x-x-x-10-10-10-10-10-10-10-10-|
D|-12-12-x-x-x-x-x-x-x-x-x-x-x-x-|-12-12-x-x-x-x-12-12-12-12-12-12-12-12-|
A|-------x-x-x-x-x-x-x-x-x-x-x-x-|-------x-x-x-x-------------------------|
E|-------x-x-x-x-x-x-x-x-x-x-x-x-|-------x-x-x-x-------------------------|

Chorus

e|-1-1-1-1-1-1-1-1-1-1-1-1-1-1-0-0-|-0-0-0-0-0-0-0-0-0-0-0-0-0-0-0-0-|
B|-1-1-1-1-1-1-1-1-1-1-1-1-1-1-1-1-|-1-1-1-1-1-1-1-1-1-1-1-1-1-1-1-1-|
G|-2-2-2-2-2-2-2-2-2-2-2-2-2-2-0-0-|-0-0-0-0-0-0-0-0-0-0-0-0-0-0-0-0-|
D|-3-3-3-3-3-3-3-3-3-3-3-3-3-3-2-2-|-2-2-2-2-2-2-2-2-2-2-2-2-2-2-2-2-|
A|-3-3-3-3-3-3-3-3-3-3-3-3-3-3-3-3-|-3-3-3-3-3-3-3-3-3-3-3-3-3-3-3-3-|
E|-1-1-1-1-1-1-1-1-1-1-1-1-1-1-----|---------------------------------|


e|-1-1-1-1-1-1-1-1-1-1-1-1-1-1-1-1-|-1-1-1-1-1-1-1-1-1-1-1-1-1-1-1-1----|
B|-3-3-3-3-3-3-3-3-3-3-3-3-3-3-3-3-|-3-3-3-3-3-3-3-3-3-3-3-3-3-3-3-3----|
G|-2-2-2-2-2-2-2-2-2-2-2-2-2-2-2-2-|-2-2-2-2-2-2-2-2-2-2-2-2-2-2-2-2----|
D|-0-0-0-0-0-0-0-0-0-0-0-0-0-0-0-0-|-0-0-0-0-0-0-0-0-0-0-0-0-0-0-0-0----|
A|---------------------------------|------------------------------------|
E|---------------------------------|------------------------------------|


e|-1-1-1-1-1-1-1-1-1-1-1-1-1-1-0-0-|-0-0-0-0-0-0-0-0-0-0-0-0-0-0-0-0-|
B|-1-1-1-1-1-1-1-1-1-1-1-1-1-1-1-1-|-1-1-1-1-1-1-1-1-1-1-1-1-1-1-1-1-|
G|-2-2-2-2-2-2-2-2-2-2-2-2-2-2-0-0-|-0-0-0-0-0-0-0-0-0-0-0-0-0-0-0-0-|
D|-3-3-3-3-3-3-3-3-3-3-3-3-3-3-2-2-|-2-2-2-2-2-2-2-2-2-2-2-2-2-2-2-2-|
A|-3-3-3-3-3-3-3-3-3-3-3-3-3-3-3-3-|-3-3-3-3-3-3-3-3-3-3-3-3-3-3-3-3-|
E|-1-1-1-1-1-1-1-1-1-1-1-1-1-1-----|---------------------------------|


e|-0-0-0-0-0-0-0-0-0-0-0-0-0-0-0-0-|-0-0-1-1-1-1-1-1-1----|
B|-1-1-1-1-1-1-1-1-1-1-1-1-1-1-1-1-|-1-1-3-3-3-3-3-3-3----|
G|-2-2-2-2-2-2-2-2-2-2-2-2-2-2-2-2-|-2-2-3-3-3-3-3-3-3----|
D|-2-2-2-2-2-2-2-2-2-2-2-2-2-2-2-2-|-2-2-3-3-3-3-3-3-3----|
A|-0-0-0-0-0-0-0-0-0-0-0-0-0-0-0-0-|-0-0-1-1-1-1-1-1-1----|
E|---------------------------------|----------------------|


Bridge

e|-x-x-x-x-x-x-x-x-x-x-x-x-x-x-x-x-|-x-x-x-x-x-x-x-x-x-x-x-x-x-x-x-x-|
B|-x-x-x-x-x-x-x-x-x-x-x-x-x-x-x-x-|-x-x-x-x-x-x-x-x-x-x-x-x-x-x-x-x-|
G|-x-x-x-x-x-x-x-x-x-x-x-x-x-x-x-x-|-x-x-x-x-x-x-x-x-x-x-x-x-x-x-x-x-|
D|-x-x-x-x-x-x-x-x-x-x-x-x-x-x-x-x-|-x-x-x-x-x-x-x-x-x-x-x-x-x-x-x-x-|
x3
A|-x-x-x-x-x-x-x-x-x-x-x-x-x-x-x-x-|-x-x-x-x-x-x-x-x-x-x-x-x-x-x-x-x-|
E|-x-x-x-x-x-x-x-x-x-x-x-x-x-x-x-x-|-x-x-x-x-x-x-x-x-x-x-x-x-x-x-x-x-|

e|-x-x-x-x-x-x-x-x-x-x-x-x-x-x-x-x-|-x-x-x-x-x-x-x-x-x-------------------|
B|-x-x-x-x-x-x-x-x-x-x-x-x-x-x-x-x-|-x-x-x-x-x-x-x-x-x-13-x-13-x-13-x-13-|
G|-x-x-x-x-x-x-x-x-x-x-x-x-x-x-x-x-|-x-x-x-x-x-x-x-x-x-------------------|
D|-x-x-x-x-x-x-x-x-x-x-x-x-x-x-x-x-|-x-x-x-x-x-x-x-x-x-------------------|
A|-x-x-x-x-x-x-x-x-x-x-x-x-x-x-x-x-|-x-x-x-x-x-x-x-x-x-------------------|
E|-x-x-x-x-x-x-x-x-x-x-x-x-x-x-x-x-|-x-x-x-x-x-x-x-x-x-------------------|

e|-------x-x-x-x-x-x-x-x-x-x-x-x-|-------x-x-x-x-x-x-x-x-x-x-x-x-|
B|-10-10-x-x-x-x-x-x-x-x-x-x-x-x-|-10-10-x-x-x-x-x-x-x-x-x-x-x-x-|
G|-10-10-x-x-x-x-x-x-x-x-x-x-x-x-|-10-10-x-x-x-x-x-x-x-x-x-x-x-x-|
D|-12-12-x-x-x-x-x-x-x-x-x-x-x-x-|-12-12-x-x-x-x-x-x-x-x-x-x-x-x-|
A|-------x-x-x-x-x-x-x-x-x-x-x-x-|-------x-x-x-x-x-x-x-x-x-x-x-x-|
E|-------x-x-x-x-x-x-x-x-x-x-x-x-|-------x-x-x-x-x-x-x-x-x-x-x-x-|

e|-------x-x-x-x-x-x-x-x-x-x-x-x-|-------x-x-x-x-x-------------------|
B|-10-10-x-x-x-x-x-x-x-x-x-x-x-x-|-10-10-x-x-x-x-x-13-x-13-x-13-x-13-|
G|-10-10-x-x-x-x-x-x-x-x-x-x-x-x-|-10-10-x-x-x-x-x-------------------|
D|-12-12-x-x-x-x-x-x-x-x-x-x-x-x-|-12-12-x-x-x-x-x-------------------|
A|-------x-x-x-x-x-x-x-x-x-x-x-x-|-------x-x-x-x-x-------------------|
E|-------x-x-x-x-x-x-x-x-x-x-x-x-|-------x-x-x-x-x-------------------|

e|-------x-x-x-x-x-x-x-x-x-x-x-x-|-------x-x-x-x-x-x-x-x-x-x-x-x-|
B|-10-10-x-x-x-x-x-x-x-x-x-x-x-x-|-10-10-x-x-x-x-x-x-x-x-x-x-x-x-|
G|-10-10-x-x-x-x-x-x-x-x-x-x-x-x-|-10-10-x-x-x-x-x-x-x-x-x-x-x-x-|
D|-12-12-x-x-x-x-x-x-x-x-x-x-x-x-|-12-12-x-x-x-x-x-x-x-x-x-x-x-x-|
A|-------x-x-x-x-x-x-x-x-x-x-x-x-|-------x-x-x-x-x-x-x-x-x-x-x-x-|
E|-------x-x-x-x-x-x-x-x-x-x-x-x-|-------x-x-x-x-x-x-x-x-x-x-x-x-|


e|-------x-x-x-x-x-x-x-x-x-x-x-x-|-------x-x-x-x-------------------------|
B|-10-10-x-x-x-x-x-x-x-x-x-x-x-x-|-10-10-x-x-x-x-10-10-10-10-10-10-10-10-|
G|-10-10-x-x-x-x-x-x-x-x-x-x-x-x-|-10-10-x-x-x-x-10-10-10-10-10-10-10-10-|
D|-12-12-x-x-x-x-x-x-x-x-x-x-x-x-|-12-12-x-x-x-x-12-12-12-12-12-12-12-12-|
A|-------x-x-x-x-x-x-x-x-x-x-x-x-|-------x-x-x-x-------------------------|
E|-------x-x-x-x-x-x-x-x-x-x-x-x-|-------x-x-x-x-------------------------|

Then

e|-------------------------|-------------------------|
B|-------------------------|-------------------------|
G|-------------------------|-------------------------|
D|-10-10-10-10-10-10-10-10-|-10-10-10-10-10-10-10-10-|
A|--8--8--8--8--8--8--8--8-|--7--7--7--7--7--7--7--7-|
E|-------------------------|-------------------------|

e|-----------------|-----------------|
B|-----------------|-----------------|
G|-----------------|-----------------|
D|-----------------|-----------------|
A|-7-7-7-7-7-7-7-7-|-7-7-7-7-7-7-7-7-|
E|-5-5-5-5-5-5-5-5-|-5-5-5-5-5-5-5-5-|


e|-------------------------|-------------------------|
B|-------------------------|-------------------------|
G|-10-10-10-10-10-10-10-10-|--9--9--9--9--9--9--9--9-|
D|-10-10-10-10-10-10-10-10-|-10-10-10-10-10-10-10-10-|
A|--8--8--8--8--8--8--8--8-|--7--7--7--7--7--7--7--7-|
E|-------------------------|-------------------------|


e|-----------------|-----------------|
B|-----------------|-----------------|
G|-----------------|---------9-9-7-7-|
D|-7-7-7-7-7-7-7-7-|-7-7-7-7-7-7-7-7-|
A|-7-7-7-7-7-7-7-7-|-7-7-7-7-7-7-7-7-|
E|-----------------|-----------------|


e|-------------------------|-------------------------|
B|-------------------------|-------------------------|
G|-------------------------|-------------------------|
D|-10-10-10-10-10-10-10-10-|-10-10-10-10-10-10-10-10-|
A|--8--8--8--8--8--8--8--8-|--7--7--7--7--7--7--7--7-|
E|-------------------------|-------------------------|


e|-----------------|-----------------|
B|-----------------|-----------------|
G|-----------------|-----------------|
D|-----------------|-----------------|
A|-7-7-7-7-7-7-7-7-|-7-7-7-7-7-7-7-7-|
E|-5-5-5-5-5-5-5-5-|-5-5-5-5-5-5-5-5-|


e|-------------------------|-------------------------|
B|-------------------------|-------------------------|
G|-10-10-10-10-10-10-10-10-|--9--9--9--9--9--9--9--9-|
D|-10-10-10-10-10-10-10-10-|-10-10-10-10-10-10-10-10-|
A|--8--8--8--8--8--8--8--8-|--7--7--7--7--7--7--7--7-|
E|-------------------------|-------------------------|


e|-----------------|----------------------|
B|-----------------|-------10-10-10-10-10-|
G|---------------9-|-9-9-9--9--9--9--9--9-|
D|-7-7-7-7-7-7-7-7-|-7-7-7--7--7--7--7--7-|
A|-7-7-7-7-7-7-7-7-|-7-7-7--0--0--0--0--0-|
E|-----------------|----------------------|

Interlude

e|-------------|-------------|-------------|-----------------------------|
B|-10-10-------|-10-10-------|-10-10-------|-10-10---x-13-x-13-x-13-x-13-|
G|-10-10-------|-10-10-------|-10-10-------|-----------------------------|
D|-12-12-------|-12-12-------|-12-12-------|-----------------------------|
A|-------------|-------------|-------------|-----------------------------|
E|-------------|-------------|-------------|-----------------------------|


e|-------x-x-x-x-x-x-x-x-x-x-x-x-|-------x-x-x-x-x-x-x-x-x-x-x-x-|
B|-10-10-x-x-x-x-x-x-x-x-x-x-x-x-|-10-10-x-x-x-x-x-x-x-x-x-x-x-x-|
G|-10-10-x-x-x-x-x-x-x-x-x-x-x-x-|-10-10-x-x-x-x-x-x-x-x-x-x-x-x-|
D|-12-12-x-x-x-x-x-x-x-x-x-x-x-x-|-12-12-x-x-x-x-x-x-x-x-x-x-x-x-|
A|-------x-x-x-x-x-x-x-x-x-x-x-x-|-------x-x-x-x-x-x-x-x-x-x-x-x-|
E|-------x-x-x-x-x-x-x-x-x-x-x-x-|-------x-x-x-x-x-x-x-x-x-x-x-x-|


e|-------x-x-x-x-x-x-x-x-x-x-x-x-|-------x-x-x-x-x-------------------|
B|-10-10-x-x-x-x-x-x-x-x-x-x-x-x-|-10-10-x-x-x-x-x-13-x-13-x-13-x-13-|
G|-10-10-x-x-x-x-x-x-x-x-x-x-x-x-|-10-10-x-x-x-x-x-------------------|
D|-12-12-x-x-x-x-x-x-x-x-x-x-x-x-|-12-12-x-x-x-x-x-------------------|
A|-------x-x-x-x-x-x-x-x-x-x-x-x-|-------x-x-x-x-x-------------------|
E|-------x-x-x-x-x-x-x-x-x-x-x-x-|-------x-x-x-x-x-------------------|


e|-------x-x-x-x-x-x-x-x-x-x-x-x-|-------x-x-x-x-x-x-x-x-x-x-x-x-|
B|-10-10-x-x-x-x-x-x-x-x-x-x-x-x-|-10-10-x-x-x-x-x-x-x-x-x-x-x-x-|
G|-10-10-x-x-x-x-x-x-x-x-x-x-x-x-|-10-10-x-x-x-x-x-x-x-x-x-x-x-x-|
D|-12-12-x-x-x-x-x-x-x-x-x-x-x-x-|-12-12-x-x-x-x-x-x-x-x-x-x-x-x-|
A|-------x-x-x-x-x-x-x-x-x-x-x-x-|-------x-x-x-x-x-x-x-x-x-x-x-x-|
E|-------x-x-x-x-x-x-x-x-x-x-x-x-|-------x-x-x-x-x-x-x-x-x-x-x-x-|


e|-------x-x-x-x-x-x-x-x-x-x-x----|----------------------------------------------------|
B|-10-10-x-x-x-x-x-x-x-x-x-x-x-10-|-10-10-10-10-10-10-10-10-10-10-10-10-10-10-10-10----|
G|-10-10-x-x-x-x-x-x-x-x-x-x-x-10-|-10-10-10-10-10-10-10-10-10-10-10-10-10-10-10-10----|
D|-12-12-x-x-x-x-x-x-x-x-x-x-x-12-|-12-12-12-12-12-12-12-12-12-12-12-12-12-12-12-12----|
A|-------x-x-x-x-x-x-x-x-x-x-x----|----------------------------------------------------|
E|-------x-x-x-x-x-x-x-x-x-x-x----|----------------------------------------------------|

Chorus

e|-1-1-1-1-1-1-1-1-1-1-1-1-1-1-0-0-|-0-0-0-0-0-0-0-0-0-0-0-0-0-0-0-0-|
B|-1-1-1-1-1-1-1-1-1-1-1-1-1-1-1-1-|-1-1-1-1-1-1-1-1-1-1-1-1-1-1-1-1-|
G|-2-2-2-2-2-2-2-2-2-2-2-2-2-2-0-0-|-0-0-0-0-0-0-0-0-0-0-0-0-0-0-0-0-|
D|-3-3-3-3-3-3-3-3-3-3-3-3-3-3-2-2-|-2-2-2-2-2-2-2-2-2-2-2-2-2-2-2-2-|
A|-3-3-3-3-3-3-3-3-3-3-3-3-3-3-3-3-|-3-3-3-3-3-3-3-3-3-3-3-3-3-3-3-3-|
E|-1-1-1-1-1-1-1-1-1-1-1-1-1-1-----|---------------------------------|


e|-1-1-1-1-1-1-1-1-1-1-1-1-1-1-1-1-|-1-1-1-1-1-1-1-1-1-1-1-1-1-1-1-1----|
B|-3-3-3-3-3-3-3-3-3-3-3-3-3-3-3-3-|-3-3-3-3-3-3-3-3-3-3-3-3-3-3-3-3----|
G|-2-2-2-2-2-2-2-2-2-2-2-2-2-2-2-2-|-2-2-2-2-2-2-2-2-2-2-2-2-2-2-2-2----|
D|-0-0-0-0-0-0-0-0-0-0-0-0-0-0-0-0-|-0-0-0-0-0-0-0-0-0-0-0-0-0-0-0-0----|
A|---------------------------------|------------------------------------|
E|---------------------------------|------------------------------------|


e|-1-1-1-1-1-1-1-1-1-1-1-1-1-1-0-0-|-0-0-0-0-0-0-0-0-0-0-0-0-0-0-0-0-|
B|-1-1-1-1-1-1-1-1-1-1-1-1-1-1-1-1-|-1-1-1-1-1-1-1-1-1-1-1-1-1-1-1-1-|
G|-2-2-2-2-2-2-2-2-2-2-2-2-2-2-0-0-|-0-0-0-0-0-0-0-0-0-0-0-0-0-0-0-0-|
D|-3-3-3-3-3-3-3-3-3-3-3-3-3-3-2-2-|-2-2-2-2-2-2-2-2-2-2-2-2-2-2-2-2-|
A|-3-3-3-3-3-3-3-3-3-3-3-3-3-3-3-3-|-3-3-3-3-3-3-3-3-3-3-3-3-3-3-3-3-|
E|-1-1-1-1-1-1-1-1-1-1-1-1-1-1-----|---------------------------------|


e|-0-0-0-0-0-0-0-0-0-0-0-0-0-0-0-0-|-0-0-1-1-1-1-1-1-1----|
B|-1-1-1-1-1-1-1-1-1-1-1-1-1-1-1-1-|-1-1-3-3-3-3-3-3-3----|
G|-2-2-2-2-2-2-2-2-2-2-2-2-2-2-2-2-|-2-2-3-3-3-3-3-3-3----|
D|-2-2-2-2-2-2-2-2-2-2-2-2-2-2-2-2-|-2-2-3-3-3-3-3-3-3----|
A|-0-0-0-0-0-0-0-0-0-0-0-0-0-0-0-0-|-0-0-1-1-1-1-1-1-1----|
E|---------------------------------|----------------------|

Outro

e|-1--1-1-1-1-1-1-0-|-0-0-0-0-0-0-0-0-|
B|-1--1-1-1-1-1-1-1-|-1-1-1-1-1-1-1-1-|
G|-2--2-2-2-2-2-2-0-|-0-0-0-0-0-0-0-0-|
D|-3--3-3-3-3-3-3-2-|-2-2-2-2-2-2-2-2-|
A|-3--3-3-3-3-3-3-3-|-3-3-3-3-3-3-3-3-|
E|-1--1-1-1-1-1-1---|-----------------|


e|-1--1-1-1-1-1-1-1-|-1-1-1-1-1-1-1-1---|
B|-3--3-3-3-3-3-3-3-|-3-3-3-3-3-3-3-3---|
G|-2--2-2-2-2-2-2-2-|-2-2-2-2-2-2-2-2---|
D|-0--0-0-0-0-0-0-0-|-0-0-0-0-0-0-0-0---|
A|------------------|-------------------|
E|------------------|-------------------|


e|-1--1-1-1-1-1-1-0-|-0-0-0-0-0-0-0-0-|
B|-1--1-1-1-1-1-1-1-|-1-1-1-1-1-1-1-1-|
G|-2--2-2-2-2-2-2-0-|-0-0-0-0-0-0-0-0-|
D|-3--3-3-3-3-3-3-2-|-2-2-2-2-2-2-2-2-|
A|-3--3-3-3-3-3-3-3-|-3-3-3-3-3-3-3-3-|
E|-1--1-1-1-1-1-1---|-----------------|


e|-0--0-0-0-0-0-0-0-|-0-1-1-1-1-1-1-1---|
B|-1--1-1-1-1-1-1-1-|-1-3-3-3-3-3-3-3---|
G|-2--2-2-2-2-2-2-2-|-2-3-3-3-3-3-3-3---|
D|-2--2-2-2-2-2-2-2-|-2-3-3-3-3-3-3-3---|
A|-0--0-0-0-0-0-0-0-|-0-1-1-1-1-1-1-1---|
E|------------------|-------------------|


e|-^5--------|
B|-^6--------|
G|-^7--------|
D|-^7--------|
A|-^5--------|
E|-----------|



Get this song at amazon.com      Ebay     Ringtones Ringtones  


Learn to play: Songwriting, Piano, Harmonica, Guitar
More Red Hot Chili Peppers lyrics available at Muzikum

Related Red Hot Chili Peppers Tabs

Pretty Lil Ditty tabs
Rivers Of Avalon tabs
Give It Away tabs
Organic Anti Beat Box Band Bass tabs
Dosed By Mick Maggot tabs
Blackeye Blonde tabs
Tell Me Baby , Good Version tabs
Hey Bass tabs
Right On Time Bass tabs
Especially In Michigan tabs
So Much I Bass tabs
Love Trilogy tabs
Under The Bridge The Way John Frusciante Plays It tabs
Hump De Bump tabs
Yertle The Turtle Bass tabs
Havana Affair (the Ramones Cover) tabs
Funky Crime tabs
Brothers Cup Bass tabs
Out In L.a. tabs
Subway To Venus Solo tabs


Guitar Tabs









All tabs are property and copyright of their owners. All tabs provided for educational purposes only. Privacy Policy, DMCA