Red Hot Chili Peppers

By The Way ( For Those That Have Only 20 Frets) Bass Tabs



More from Red Hot Chili Peppers

Red Hot Chili Peppers Tabs
Red Hot Chili Peppers Chords
Red Hot Chili Peppers Bass
Red Hot Chili Peppers Lyrics




Red Hot Chili Peppers - By The Way, different version of Leo Jaeggis
tab, http://www.tabs-database.com/r/red_hot_chili_peppers/164171.html

Intro:
G|-----------------|----------------|----------------|----------------|
D|-1515151515151515|1414141414141414|----------------|----------------| (15,14 and 12)
A|-----------------|----------------|1212121212121212|1212121212121212|
D|-----------------|----------------|----------------|----------------|

G|-1717171717171717|----------------|----------------|----------------|
D|-----------------|1414141414141414|1919191919191919|1919191914141212| (17, 14 and 19)
A|-----------------|----------------|----------------|----------------|
D|-----------------|----------------|----------------|----------------|

G|---------|55555555|22222222|22222222/17|
D|-33333333|--------|--------|-----------|
A|---------|--------|--------|-----------|
D|---------|--------|--------|-----------|

G|-1717171717171717|----------------|--------------------------------|
D|-----------------|1414141414141414|19191919191919191919191919191919| (17, 14 and 19)
A|-----------------|----------------|--------------------------------|
D|-----------------|----------------|--------------------------------|

Interlude:
G|----------------------------------|----------------------------------|
D|---------------3---x--------------|-------------3--------------------|
A|---------3h5---------3h5-----0h3--|---------3h5-------0-0h3---x------|
D|-0---0----------------------------|-0---0-----------------------0h3--|

G|----------------------------------|----------------------------------|
D|-------------3-----x--------------|----------------------------------|
A|---------3h5---------3h5-----0h3--|---------3-5---5---5-6-6-6-6-6-6--|
D|-0---0----------------------------|-0---0----------------------------|

Verse:
G|----------------------------------|----------------------------------|
D|---------------3---x--------------|-------------3--------------------|
A|---------3h5---------3h5-----0h3--|---------3h5-------0-0h3---x------|
D|-0---0----------------------------|-0---0-----------------------0h3--|

G|----------------------------------|----------------------------------|
D|-------------3-----x--------------|----------------------------------|
A|---------3h5---------3h5-----0h3--|---------3-5---5---5-6-6-6-6-6-6--|
D|-0---0----------------------------|-0---0----------------------------|

G|----------------------------------|----------------------------------|
D|---------------3---x--------------|-------------3--------------------|
A|---------3h5---------3h5-----0h3--|---------3h5-------0-0h3---x------|
D|-0---0----------------------------|-0---0-----------------------0h3--|

G|----------------------------------|----------------------------------|
D|-------------3-----x--------------|----------------------------------|
A|---------3h5---------3h5-----0h3--|---------3-5---5---5-6-6-6-6-6-6--|
D|-0---0----------------------------|-0---0----------------------------|

G|----------------------------------|----------------------------------|
D|---------------3---x--------------|-------------3--------------------|
A|---------3h5---------3h5-----0h3--|---------3h5-------0-0h3---x------|
D|-0---0----------------------------|-0---0-----------------------0h3--|

G|----------------------------------|----------------------------------|
D|-------------3-----x--------------|----------------------------------|
A|---------3h5---------3h5-----0h3--|---------3-5---5---5-6-6-6-6-6-6--|
D|-0---0----------------------------|-0---0----------------------------|

Chorus:
G|----------------------------------|----------------------------------|
D|-----------------------------10---|-----10--10----1010--10------10---|
A|-8-------8-----8-8---10--12-------|----------------------------------|
D|----------------------------------|----------------------------------|



G|----------------------------------|----------------------------------|
D|-12------12---12-12--12------12---|-----12--12--12--12--12---10------|
A|----------------------------------|-----------------------------12---|
D|----------------------------------|----------------------------------|

G|----------------------------------|----------------------------------|
D|-----------------------------10---|-----10--10--10--10--10--10--10---|
A|-8-------8-----8-8---8------------|----------------------------------|
D|----------------------------------|----------------------------------|

G|----------------------------------|----------------------------------|
D|-7-------7-----7-7---7---7---7----|-----8---8-------8---8---8---8----|
A|----------------------------------|----------------------------------|
D|----------------------------------|----------------------------------|

Interlude

Verse

Intro

Verse

Last chorus:
G|----------------------------------|----------------------------------|
D|-----------------------------10---|-----10--10--10--10--10--10--10---|
A|-8-------8-----8-8---10--12-------|----------------------------------|
D|----------------------------------|----------------------------------|

G|----------------------------------|----------------------------------|
D|-12------12---12-12--12------12---|-----10---------------------------|
A|----------------------------------|-------------12------12--10--12---|
D|----------------------------------|----------------------------------|

G|----------------------------------|----------------------------------|
D|-----------------------------10---|-----10--10--10--10--10--10--10---|
A|-8-------8-----8-8---8---8--------|----------------------------------|
D|----------------------------------|----------------------------------|

G|----------------------------------|----------------------------------|
D|-7-------7-----7-7---7---7---7----|-----8---8-------8---8-----8------|
A|----------------------------------|-----------------------------10---|
D|----------------------------------|----------------------------------|

G|----------------------------------|----------------------------------|
D|---------------------8---9---10---|-----10--10--10--10--8---10--8----|
A|-8-------8-----8-8----------------|----------------------------------|
D|----------------------------------|----------------------------------|

G|----------------------------------|----------------------------------|
D|-12------12---12-12--12------12---|-----12--12--12--12--14--12--12---|
A|----------------------------------|----------------------------------|
D|----------------------------------|----------------------------------|

G|----------------------------------|----------------------------------|
D|-----------------------------10---|-----10--10--10--10--10--10--10---|
A|-8-------8-----8-8---8---8--------|----------------------------------|
D|----------------------------------|----------------------------------|

G|----------------------------------|----------------------------------|
D|-7-------7---7---7---7---7---7----|-----8---8-------8---8---8--------|
A|----------------------------------|----------------------------------|
D|----------------------------------|----------------------------------|

And to end when the last lyrics, "waiting for" and the guitar
strums the last chord you play a sinlge 12 on the D sting and hold,
like so:

G|---------------------------------|
D|12~~~~~~~~~~~~~~~~~~~~~~~~~~~~~~~|
A|---------------------------------|
D|---------------------------------|

Thats what I think it goes like.
Please rate it and email me if you have any problems, paddyulsterman@hotmail.co.uk

Adam Vaughan



Get this song at amazon.com      Ebay     Ringtones Ringtones  


Learn to play: Songwriting, Piano, Harmonica, Guitar
More Red Hot Chili Peppers lyrics available at Muzikum

Related Red Hot Chili Peppers Bass Tabs

Venice Queen bass
Salute To Kareem bass
Walkabout bass
One Hot Minute bass
Roller Coaster bass
Californication (the Ultimate Tab) bass
Special Secret Song Inside bass
Snow bass
Funky Crime bass
Chili Peppers Blow bass
Look Around bass
Suck My Kiss (in Detail) bass
Purple Stain bass
Cabron bass
Black Cross bass
Californiacation bass
Baby Appea bass
Porcelain bass
Arpeggiating bass
Stadium Arcadium bass


Guitar Tabs









All tabs are property and copyright of their owners. All tabs provided for educational purposes only. Privacy Policy, DMCA