Red Hot Chili Peppers

By The Way::::::101% Correct, No Questions Asked Bass Tabs



More from Red Hot Chili Peppers

Red Hot Chili Peppers Tabs
Red Hot Chili Peppers Chords
Red Hot Chili Peppers Bass
Red Hot Chili Peppers Lyrics




Artist: Red Hot Chili Peppers
Bassist: Flea
Song: By the Way
Album: By the Way

Intro
G|-10-10-10-10-10-10-10-10--9-9-9-9-9-9-9-9------------|
D|-----------------------------------------------------|
A|-----------------------------------------------------|
E|-----------------------------------------------------|

G|-----------------------------------------------------|
D|-7-7-7-7-7-7-7-7---7-7-7-7-7-7-7-7/------------------|
A|-----------------------------------------------------|
E|-----------------------------------------------------|

Standing in line...
G|-17-17-17-17-17-17-17-17--21-21-21-21-21-21-21-21----|
D|-----------------------------------------------------|
A|-----------------------------------------------------|
E|-----------------------------------------------------|
Light on...
G|-----------------------------------------------------|
D|-19-19-19-19-19-19-19-19--19-19-19-19-19-19/---------|
A|-----------------------------------------------------|
E|-----------------------------------------------------|
By the way I tried...
G|-----------------------5-5-5-5-5-5-5-5---------------|
D|-3-3-3-3-3-3-3-3-------------------------------------|
A|-----------------------------------------------------|
E|-----------------------------------------------------|
Be there, waiting...
G|-2-2-2-2-2-2-2-2----2-2-2-2-2-2-2/-------------------|
D|-----------------------------------------------------|
A|-----------------------------------------------------|
E|-----------------------------------------------------|

Dani the girl...
G|-17-17-17-17-17-17-17-17----21-21-21-21-21-21-21-21--|
D|-----------------------------------------------------|
A|-----------------------------------------------------|
E|-----------------------------------------------------|
Marquee...
G|-----------------------------------------------------|
D|-19-19-19-19-19-19-19-19---19-19-19-19-19-19-19\-----|
A|-----------------------------------------------------|
E|-----------------------------------------------------|

(Bass solo)
G|-----------------------------------------------------|
D|------------3----------------------------------------|
A|-------3h5-----0-3h5--0-3h5--------------------------|
E|-0--0------------------------------------------------|

G|-----------------------------------------------------|
D|------------3----------------------------------------|
A|-------3h5-----0h3--0h3------------------------------|
E|-0--0------------------------------------------------|

G|-----------------------------------------------------|
D|------------3----------------------------------------|
A|-------3h5-----0-3h5--0-3h5--------------------------|
E|-0--0------------------------------------------------|

G|-----------------------------------------------------|
D|------------3----------------------------------------|
A|-------3h5-----0-3^^^--------------------------------|
E|-0--0------------------------------------------------|

Steak Knife
G|-----------------------------------------------------|
D|------------3----------------------------------------|
A|-------3h5-----0-3h5--0-3h5--------------------------|
E|-0--0------------------------------------------------|
Card Shark
G|-----------------------------------------------------|
D|------------3----------------------------------------|
A|-------3h5-----0h3--0h3------------------------------|
E|-0--0------------------------------------------------|
Con Job
G|-----------------------------------------------------|
D|------------3----------------------------------------|
A|-------3h5-----0-3h5--0-3h5--------------------------|
E|-0--0------------------------------------------------|
Boot Cut
G|-----------------------------------------------------|
D|------------3----------------------------------------|
A|-------3h5-----0-3^^^--------------------------------|
E|-0--0------------------------------------------------|

Skin That Flick
G|-----------------------------------------------------|
D|------------3----------------------------------------|
A|-------3h5-----0-3h5--0-3h5--------------------------|
E|-0--0------------------------------------------------|
Get There Quick
G|-----------------------------------------------------|
D|------------3----------------------------------------|
A|-------3h5-----0h3--0h3------------------------------|
E|-0--0------------------------------------------------|
Turn That Chick
G|-----------------------------------------------------|
D|------------3----------------------------------------|
A|-------3h5-----0-3h5--0-3h5--------------------------|
E|-0--0------------------------------------------------|
Beat That Nic
G|-----------------------------------------------------|
D|------------3----------------------------------------|
A|-------3h5-----0-3^^^--------------------------------|
E|-0--0------------------------------------------------|

Dog Town
G|-----------------------------------------------------|
D|------------3----------------------------------------|
A|-------3h5-----0-3h5--0-3h5--------------------------|
E|-0--0------------------------------------------------|
Blood Bath
G|-----------------------------------------------------|
D|------------3----------------------------------------|
A|-------3h5-----0h3--0h3------------------------------|
E|-0--0------------------------------------------------|
Rib Cage
G|-----------------------------------------------------|
D|------------3----------------------------------------|
A|-------3h5-----0-3h5--0-3h5--------------------------|
E|-0--0------------------------------------------------|
Soft tail
G|-----------------------------------------------------|
D|------------3----------------------------------------|
A|-------3h5-----0-3^^^--------------------------------|
E|-0--0------------------------------------------------|

Standin In Line
G|-----------------------------------------------------|
D|--------------7-10--10--10-1010-10-10-10-10----------|
A|-8--8-88--8-8----------------------------------------|
E|-----------------------------------------------------|
Light on
G|-----------------------------------------------------|
D|-12--12-1212-12-12-12-12--12-12-1212-12-12-12-10-----|
A|-------------------------------------------------12--|
E|-----------------------------------------------------|
By The Way
G|-----------------------------------------------------|
D|----------------10--10--10-1010-10-10-10-10----------|
A|-8--8-88--8-8-8--------------------------------------|
E|-----------------------------------------------------|
Be There
G|-----------------------------------------------------|
D|-7--7-77-7-7-7-7--8-8-8-8-8-88-----------------------|
A|-------------------------------10--------------------|
E|-----------------------------------------------------|

(Bass solo)
G|-----------------------------------------------------|
D|------------3----------------------------------------|
A|-------3h5-----0-3h5--0-3h5--------------------------|
E|-0--0------------------------------------------------|

G|-----------------------------------------------------|
D|------------3----------------------------------------|
A|-------3h5-----0h3--0h3------------------------------|
E|-0--0------------------------------------------------|

G|-----------------------------------------------------|
D|------------3----------------------------------------|
A|-------3h5-----0-3h5--0-3h5--------------------------|
E|-0--0------------------------------------------------|

G|-----------------------------------------------------|
D|------------3----------------------------------------|
A|-------3h5-----0-3^^^--------------------------------|
E|-0--0------------------------------------------------|

Black Jack
G|-----------------------------------------------------|
D|------------3----------------------------------------|
A|-------3h5-----0-3h5--0-3h5--------------------------|
E|-0--0------------------------------------------------|
Dope Dick
G|-----------------------------------------------------|
D|------------3----------------------------------------|
A|-------3h5-----0h3--0h3------------------------------|
E|-0--0------------------------------------------------|
Pawn Shop
G|-----------------------------------------------------|
D|------------3----------------------------------------|
A|-------3h5-----0-3h5--0-3h5--------------------------|
E|-0--0------------------------------------------------|
Quick Pick
G|-----------------------------------------------------|
D|------------3----------------------------------------|
A|-------3h5-----0-3^^^--------------------------------|
E|-0--0------------------------------------------------|

Kiss That Dyke
G|-----------------------------------------------------|
D|------------3----------------------------------------|
A|-------3h5-----0-3h5--0-3h5--------------------------|
E|-0--0------------------------------------------------|
Not On Strike
G|-----------------------------------------------------|
D|------------3----------------------------------------|
A|-------3h5-----0h3--0h3------------------------------|
E|-0--0------------------------------------------------|
Bite That Mic
G|-----------------------------------------------------|
D|------------3----------------------------------------|
A|-------3h5-----0-3h5--0-3h5--------------------------|
E|-0--0------------------------------------------------|
Girls that like
G|-----------------------------------------------------|
D|------------3----------------------------------------|
A|-------3h5-----0-3^^^--------------------------------|
E|-0--0------------------------------------------------|

Song Bird
G|-----------------------------------------------------|
D|------------3----------------------------------------|
A|-------3h5-----0-3h5--0-3h5--------------------------|
E|-0--0------------------------------------------------|
Main Line
G|-----------------------------------------------------|
D|------------3----------------------------------------|
A|-------3h5-----0h3--0h3------------------------------|
E|-0--0------------------------------------------------|
Cash Back
G|-----------------------------------------------------|
D|------------3----------------------------------------|
A|-------3h5-----0-3h5--0-3h5--------------------------|
E|-0--0------------------------------------------------|
Hard Top
G|-----------------------------------------------------|
D|------------3----------------------------------------|
A|-------3h5-----0-3^^^--------------------------------|
E|-0--0------------------------------------------------|

Standin In Line
G|-10-10-10-10-10-10-10-10--9-9-9-9-9-9-9-9------------|
D|-----------------------------------------------------|
A|-----------------------------------------------------|
E|-----------------------------------------------------|
Light On
G|-----------------------------------------------------|
D|-7-7-7-7-7-7-7-7---7-7-7-7-7-7-7-7/------------------|
A|-----------------------------------------------------|
E|-----------------------------------------------------|

By The Way
G|-17-17-17-17-17-17-17-17--21-21-21-21-21-21-21-21----|
D|-----------------------------------------------------|
A|-----------------------------------------------------|
E|-----------------------------------------------------|
Be There
G|-----------------------------------------------------|
D|-19-19-19-19-19-19-19-19--19-19-19-19-19-19/---------|
A|-----------------------------------------------------|
E|-----------------------------------------------------|
Dani The Girl
G|-----------------------5-5-5-5-5-5-5-5---------------|
D|-3-3-3-3-3-3-3-3-------------------------------------|
A|-----------------------------------------------------|
E|-----------------------------------------------------|
Marquee
G|-2-2-2-2-2-2-2-2----2-2-2-2-2-2-2/-------------------|
D|-----------------------------------------------------|
A|-----------------------------------------------------|
E|-----------------------------------------------------|

By The Way
G|-17-17-17-17-17-17-17-17----21-21-21-21-21-21-21-21--|
D|-----------------------------------------------------|
A|-----------------------------------------------------|
E|-----------------------------------------------------|
Waiting For
G|-----------------------------------------------------|
D|-19-19-19-19-19-19-19-19---19-19-19-19-19-19-19\-----|
A|-----------------------------------------------------|
E|-----------------------------------------------------|

(Bass solo)
G|-----------------------------------------------------|
D|------------3----------------------------------------|
A|-------3h5-----0-3h5--0-3h5--------------------------|
E|-0--0------------------------------------------------|

G|-----------------------------------------------------|
D|------------3----------------------------------------|
A|-------3h5-----0h3--0h3------------------------------|
E|-0--0------------------------------------------------|

G|-----------------------------------------------------|
D|------------3----------------------------------------|
A|-------3h5-----0-3h5--0-3h5--------------------------|
E|-0--0------------------------------------------------|

G|-----------------------------------------------------|
D|------------3----------------------------------------|
A|-------3h5-----0-0-3^^^------------------------------|
E|-0--0------------------------------------------------|
|-----------------repeat solo X3--------------------|

Standin In Line
G|-----------------------------------------------------|
D|--------------7-10--10--10-1010-10-10-10-10----------|
A|-8--8-88--8-8----------------------------------------|
E|-----------------------------------------------------|
Light on
G|-----------------------------------------------------|
D|-12--12-1212-12-12-12-12--12-12-1212-12-12-12-10-----|
A|-------------------------------------------------12--|
E|-----------------------------------------------------|
By The Way
G|-----------------------------------------------------|
D|----------------10--10--10-1010-10-10-10-10----------|
A|-8--8-88--8-8-8--------------------------------------|
E|-----------------------------------------------------|
Be There
G|-----------------------------------------------------|
D|-7--7-77-7-7-7-7--8-8-8-8-8-88-----------------------|
A|-------------------------------10--------------------|
E|-----------------------------------------------------|
|------------------repeat X2-----------------------|

rest till the end

thatís it, its ALL there, and its all right



Get this song at amazon.com      Ebay     Ringtones Ringtones  


Learn to play: Songwriting, Piano, Harmonica, Guitar
More Red Hot Chili Peppers lyrics available at Muzikum

Related Red Hot Chili Peppers Bass Tabs

She Looks To Me bass
Higher Ground bass
Simple Nice bass
Sikamikahingo bass
Jungle Man bass
Dani California(that's It) bass
Breaking The Girl! bass
By The Way (correct) bass
Mellowship Slinky In Bminor bass
Suck My Kiss bass
Desecration Smile Bass Tab bass
Other side bass
Baby Appeal bass
Higher Ground (complete) bass
One Hot Minute bass
123456 bass
Quick Jam bass
Flea Video Bass Tab bass
Baby Apeal bass
Funny Face bass


Guitar Tabs









All tabs are property and copyright of their owners. All tabs provided for educational purposes only. Privacy Policy, DMCA