Red Hot Chili Peppers

Breaking The Girl! Bass Tabs



More from Red Hot Chili Peppers

Red Hot Chili Peppers Tabs
Red Hot Chili Peppers Chords
Red Hot Chili Peppers Bass
Red Hot Chili Peppers Lyrics




VERSE 1
G--------------------------------------------------------|
D-----6---6------4-6----6---6----6-4------6---6------4-6-|
A-------6------6----------6----------6------6------6-----|
E---4--------4--------4--------4--------4-------4--------|
[Play time 1-3 ] [Play on the forth time through]
G------------------------------------------------------|
D---6---6----6---6----6---6----6---6----6---6----6---6-|
A-----6--------6--------6--------6--------6--------6---|
E-4--------4--------4--------4--------4--------4-------|

BRIDGE 1
G----------------------------------------------------------------------------|
D---------1-2-4-------------------6---6-------4--6-6-6--6-4--------------1-4-|
A-2-2-2-----------------4----------6------456--------------6--2--2-2--2-----|
E----------------2--2-2----2/6--4--------4-----------------------------------|

G--------------------------------------------|
D------------------------------2-2-2--2---2--|
A---------------------------2-----------2----|
E-2--2-2--2-2-6--0-0-0--0-0------------------|

CHORUS 1
G--------------------------------------------------------|
D--------------------------------------------------------|
A----------------------4-4-4--6-6-6--4-4-4---------------|
E-4-4-4--6-6-6--7-7-7-----------------------7-7-7--6-6-6-|

G---------------------------------------------------------|
D--------------------------------------8-6--8-6-8--9-8-6-|
A----------------------4-4-4-/7-7-7--7--------------------|
E-4-4-4--6-6-6--7-7-7-------------------------------------|

G--------------------------------------------------------|
D--------------------------------------------------------|
A----------------------4-4-4--6-6-6--4-4-4---------------|
E-4-4-4--6-6-6--7-7-7-----------------------7-7-7--6-6-6-|

G--------------------------------------------------------|
D--------------------------------------------------------|
A----------------------4-4-4-/7-7-7--7-7-7--7-7-7--6-6-6-|
E-4-4-4--6-6-6--7-7-7------------------------------------|

VERSE 2
G--------------------------------------------------------|
D-----6---6------4-6----6---6----6-4------6----------4-6-|
A-------6------6----------6----------6-------------6-----|
E---4--------4--------4--------4--------4-------4--------|
[Play time 1-3] [Play on the forth time through]
G------------------------------------------------------|
D---6---6----6---6----6---6----6---6----6---6----6---6-|
A-----6--------6--------6--------6--------6--------6---|
E-4--------4--------4--------4--------4--------4-------|

BRIDGE 2
G---------------------------------------------------------------------------|
D---------1-2-4-------------------6---6------4--6-6-6--464------------1-2-4-|
A-2-2-2-----------------4----------6------6---------------6--2--2-2--------|
E----------------2--2-2----2/6--4--------4----------------------------------|

G---------------------------------------------|
D---------------------------------------------|
A-----------------------------/7-7-7--7---7/-|
E-2--2-2--2-2-6--0-0-0--0-0-7-----------7-----|

CHORUS 2
G--------------------------------------------------------|
D--------------------------------------------------------|
A----------------------4-4-4--6-6-6--4-4-4---------------|
E-4-4-4--6-6-6--7-7-7-----------------------7-7-7--6-6-6-|

G-----------------------------------------------6---------|
D--------------------------------------8-6--8-9----9-8-6-|
A----------------------4-4-4-/7-7-7--7--------------------|
E-4-4-4--6-6-6--7-7-7-------------------------------------|

G--------------------------------------------------------|
D--------------------------------------------------------|
A----------------------4-4-4--6-6-6--4-4-4---------------|
E-4-4-4--6-6-6--7-7-7-----------------------7-7-7--6-6-6-|

G--------------------------------------------------------|
D--------------------------------------------------------|
A----------------------4-4-4-/7-7-7--7-7-7--7-7-7--6-6-6-|
E-4-4-4--6-6-6--7-7-7------------------------------------|

INTERLUDE
G----------------------------|
D----------------------------|
A----------------------2-2-2-|
E-4-424----024----424--------|

FINAL CHORUS/OUTRO
G--------------------------------------------------------|
D--------------------------------------------------------|
A----------------------4-4-4--6-6-6--4-4-4---------------|
E-4-4-4--6-6-6--7-7-7-----------------------7-7-7--6-6-6-|

G---------------------------------------------6-----------|
D--------------------------------------6-8--9---9--8-9-8-|
A----------------------4-4-4-/7-7-7--7--------------------|
E-4-4-4--6-6-6--7-7-7-------------------------------------|

G------------------------------------------------------------|
D------------------------------------6-6-6--8-8-8--11-11-11-|
A----------------------4-4-4--6-6-6--------------------------|
E-4-4-4--6-6-6--7-7-7----------------------------------------|

G-----------------------------------------------------------|
D--------------------------------------6-68--898686---68986-|
A----------------------4-4-4-/7-7-7--7--7-------------------|
E-4-4-4--6-6-6--7-7-7---------------------------------------|

G------------------------------------------------------------|
D------------------------------------6-6-6--8-8-8--11-11-11--|
A----------------------4-4-4--6-6-6--------------------------|
E-4-4-4--6-6-6--7-7-7----------------------------------------|

G-13-13-13--13-13-13---------------------------------------------------|
D---------------------13-13-13--11-11-11--14-14-14--14-14-14--14-13-11-|
A----------------------------------------------------------------------|
E----------------------------------------------------------------------|

G------------|
D-9h11p9-----|
A--------11-|
E------------|

G--------------------------------------------------------|
D--------------------------------------------------------|
A----------------------4-4-4--6-6-6--4-4-4---------------|
E-4-4-4--6-6-6--7-7-7-----------------------7-7-7--6-6-6-|

G--------------------------------------------------6------|
D--------------------------------------6-8--9-8-9----9-8-|
A----------------------4-4-4-/7-7-7--7--------------------|
E-4-4-4--6-6-6--7-7-7-------------------------------------|

G------------------------------------------------------------|
D------------------------------------6-6-6--8-8-8--11-11-11--|
A----------------------4-4-4--6-6-6--------------------------|
E-4-4-4--6-6-6--7-7-7----------------------------------------|

G---------------------------------------------------------|
D---------------------------------------------------------|
A----------------------4-4-4--/7-7-7--4-5-7--4-5-7---5-4/-|
E-4-4-4--6-6-6--7-7-7-------------------------------------|



Get this song at amazon.com      Ebay     Ringtones Ringtones  


Learn to play: Songwriting, Piano, Harmonica, Guitar
Also available at Muzikum: Red Hot Chili Peppers - Breaking the girl lyrics

Related Red Hot Chili Peppers Bass Tabs

Hump De Bump (100% Correct) bass
Skinny Sweaty Man bass
Can't Stop Good I Think bass
Crosstown Traffic bass
Savior bass
Soul To Squeeze (perfecto!!) bass
The Adventures Of Raindance Maggie bass
Venice Queen bass
Funky Crime bass
Hey bass
Off The Map Jams bass
Shes Only 18 bass
Strom In A Teacup bass
Falling Into Grace bass
Flea Solo (@ Multi-show Viva) bass
Tell Me Baby (10000% Correct) bass
Blood Sugar Sex Magic bass
What Is Soul (from Off The Map) bass
The Is The Place bass
Shallow Be Thy Game bass


Guitar Tabs









All tabs are property and copyright of their owners. All tabs provided for educational purposes only. Privacy Policy, DMCA