Red Hot Chili Peppers

Black Cross Bass Tabs



More from Red Hot Chili Peppers

Red Hot Chili Peppers Tabs
Red Hot Chili Peppers Chords
Red Hot Chili Peppers Bass
Red Hot Chili Peppers Lyrics



Verse
G:----------------------------------------------
D:----------------------------------------------
A:---------------6-666------------------------
E:--------5-555---------5-555--3-555------

Verse variation
G:-----------------------------------------------
D:-----------------------------------------------
A:----10-9-8-7---------------------------------
E:----------------10-9-8-7---5-5-x-55-------

G:---------------------------------------------------
D:---------------------------------------------------
A:------5-6-7-----7-6-5-------5-6-7-----7-6-5--
E:----5----------5-----------5-----------5----------

G:--------------------------------------
D:--------------------------------------
A:-------5-6-7-----5-6-7-6-5-6-----
E:----5-----------5----------------5--- (X 2)

Bridge

G:-----------------------------------------------------
D:-----------------------------------------------------
A:--------5-5---7-7--5-5---7-7---5-5---6-6-------
E:----5-5------------------------------------------5-5 (X 3)

Guitar and bass only bit.
G:------------------------------------------------------
D:------------------------------------------------------
A:--------5-6-7---7-6-5--3--------------------------
E:----5-----------------------5-555-4----------------



Get this song at amazon.com      Ebay     Ringtones Ringtones  


Learn to play: Songwriting, Piano, Harmonica, Guitar
More Red Hot Chili Peppers lyrics available at Muzikum

Related Red Hot Chili Peppers Bass Tabs

Cmon Girl bass
Castles Made Of Sand bass
Bass Solo bass
Hyde Park Bass Solo #2 bass
F U bass
Storm In A Teacup bass
Under The Bridge (live) bass
Make You Feel Better bass
The Righteous And The Wicked(4 String) bass
Especially In Michigan bass
Cant Stop bass
Midnight bass
Californication(100%correct Really) bass
Under The Bridge (not Live) bass
Battleship bass
Under The Brgidge(downtown) bass
I Like Dirt bass
Castle Made Of Sand bass
Spell Correctly bass
Otherside ( Correct ) bass


Guitar Tabs









All tabs are property and copyright of their owners. All tabs provided for educational purposes only. Privacy Policy, DMCA