Red Hot Chili Peppers

Behind The Sun Bass Tabs



More from Red Hot Chili Peppers

Red Hot Chili Peppers Tabs
Red Hot Chili Peppers Chords
Red Hot Chili Peppers Bass
Red Hot Chili Peppers Lyrics




Intro
G------------------------|(x8)
D------------------------|
A------------------------|
E-0-x--0--0-x--0-0-0-0--x|
T T T T T T T T T T

G-----------------------------------------|
D-----------------------------------------|
A-----------------------------------------|
E-17p16-15-14--13-12-11-11p10-10p9-9-9-8-7|
T T T T T T T T T T T T

G-------------------------------|
D-------------------------------|
A-------------------------------|
E-7-6-6--5-5-4-4p3-3-3-3-3p2p1p0|
T T T T T T T T T T T

G------------------------|(x4)
D------------------------|
A------------------------|
E-0-x--0--0-x--0-0-0-0--x|
T T T T T T T T T T


Chorus
G--------------------------|
D--------------------------|
A-----------x-4--4-4-4-4--x|
E-5--5--5-5----------------|

G---------------------------|
D---------------------------|
A-5--x-5--5--(0)---------5h7|
E----------------9-7-5h7----|

G------------------------|(x2)
D------------------------|
A------------------------|
E-0-x--0--0-x--0-0-0-0--x|

G--------------------------|
D--------------------------|
A-----------x-4--4-4-4-4--x|
E-5--5--5-5----------------|

G---------------------------|
D---------------------------|
A-5--x-5--5--(0)---------5h7|
E----------------9-7-5h7----|

G------------------------|(x2)
D------------------------|
A------------------------|
E-0-x--0--0-x--0-0-0-0--x|

G--------------------------|
D--------------------------|
A-----------x-4--4-4-4-4--x|
E-5--5--5-5----------------|

G---------------------------|
D---------------------------|
A-5--x-5--5--(0)---------5h7|
E----------------9-7-5h7----|

G------------------------|(x2)
D------------------------|
A------------------------|
E-0-x--0--0-x--0-0-0-0--x|

G-9h11-9---------------------|
D--------11p9-7-9h11-9-------|
A----------------------11p9-7|
E----------------------------|

G-----------------------|
D-----------------------|
A-9h11-9-9-7---------5h7|
E------------9-7-5h7----|

G------------------------|(x2)
D------------------------|
A------------------------|
E-0-x--0--0-x--0-0-0-0--x|



Get this song at amazon.com      Ebay     Ringtones Ringtones  


Learn to play: Songwriting, Piano, Harmonica, Guitar
Also available at Muzikum: Red Hot Chili Peppers - Behind The Sun lyrics

Related Red Hot Chili Peppers Bass Tabs

Melancholy Mechanics bass
Bullet Proof bass
Mommy Where's Daddy bass
Sikamikahingo bass
What Is Soul bass
Havana Affair bass
Dani California (perfect) bass
Soul To Squeeze bass
All Around The World bass
The Zephyr Song bass
Californication(correct) bass
Scar Tissue bass
Can't Stop (correct) bass
Crosstown Traffic bass
Give It Away(correct) bass
Parallel Universe (%100 Perfect) bass
Minor Thing bass
Behind The Sun bass
On Murcury bass
Time bass


Guitar Tabs









All tabs are property and copyright of their owners. All tabs provided for educational purposes only. Privacy Policy, DMCA