Red Hot Chili Peppers

Behind The Song Tabs



More from Red Hot Chili Peppers

Red Hot Chili Peppers Tabs
Red Hot Chili Peppers Chords
Red Hot Chili Peppers Bass
Red Hot Chili Peppers Lyrics

Artist: Red Hot Chili Peppers 
Title: Behind the Song 
Transcribed by: Andrew Strickland 
Date: 05/23/01 
I was surprised that no one has tabbed this up yet so I took it upon 
myself to tab it up cause it's sooooo easy. This is my 4th tab this  
week. In 2 days actually. I'm pretty sure that this is 99% correct. 
Enjoy!!  
Intro: 
|--------------------------------------------------------------------7--| 
|--------------------------------------------------------------------9--| 
|-9/11-11-99-9-7--------------------------------------------------9--| 
|-0-0--0--00-0-0-7-9/11-11-99-9-7------------------------------9--| 
|------------------0-0--0--00-0-0-7-9/11-11-99-9-7-4-----5-7--7--| 
|---------------------------------------------------7-5h7----------0--| 
Verses: Rythem Guitar 
|-7-7-77--9- 
|-9-9-99--9- 
|-9-9-99--9- 
|----------- 
|----------- 
|----------- 
Lead plays this during verses: 
|---7-7-7-9---7-7-7-----|---7-7-7-9---12-9------------| 
|--9---9-9---9-----9----|--9---9-9---------12-10-9-----| 
|-9---------9-------9-9--|-9------------------------11-9-| 
|-------------------------|-----------------------------| 
|-----------------------|-----------------------------| 
|-----------------------|-----------------------------| 
Then Chorus which is same as intro and then verse 2 then chorus then 
this solo bridge thing: (they use a weird Egyptian effect on this)  
Other guitar plays the A Chord behind the lead:  
|------------------3-----|  
|----2-3-2-0-----2---2-3-| 
|---2-2-2---2---2-2-2----| (play 4x I think) 
|--2-----------2---------| 
|-0-----------0----------| 
|------------------------| 
Do verse 3 then Chorus again. 
Well, there it is, have fun playin. E-mail me at  
OLP_rules27@hotmail.com
Get this song at amazon.com      Ebay     Ringtones Ringtones  


Learn to play: Songwriting, Piano, Harmonica, Guitar
More Red Hot Chili Peppers lyrics available at Muzikum

Related Red Hot Chili Peppers Tabs

Black Cross tabs
My Friends tabs
Pretty Lil Ditty tabs
The Handclapping Song Live tabs
Dani tabs
Slow Cheetah Bass tabs
Minor Thing tabs
I Could Die For You (5) tabs
Havana Affair tabs
Baby Appeal (3) tabs
Tearjecker tabs
Castles Made Of Sand (2) tabs
Melancholy Mechanics tabs
Velvet Glove tabs
Funny Face tabs
Hey tabs
Sikamikanico tabs
Californication (the Ultimate Tab) tabs
River Of Avalon tabs
Zephyr Song Solo tabs


Guitar Tabs









All tabs are property and copyright of their owners. All tabs provided for educational purposes only. Privacy Policy, DMCA