Red Hot Chili Peppers

Battleship Bass Tabs



More from Red Hot Chili Peppers

Red Hot Chili Peppers Tabs
Red Hot Chili Peppers Chords
Red Hot Chili Peppers Bass
Red Hot Chili Peppers Lyrics




Battleship
Red Hot Chili Peppers
Freaky Styley (1985)


Verse
G|-----------------------
D|-----------------------
A|-----------------------
E|-7-7-5-5-7--7-5-5-5-7-- x8

Chorus
G|---------------------------------
D|---------------------------------
A|-7-7-7--------7-7-7--------------
E|-------33-55--------3-5-6-7-(-77-) x2


Verse x12

Chorus x2


Bridge
G|----------------------- ---------------------
D|----------------------- ---------------------
A|----------------------- ---------------------
E|-7-7-5-5-7--7-7-5-5-5--x2 -7-7-0-0-2-0-3-0-4-5-
0's may be muted
G|-----------------------
D|-----------------------
A|-----------------------
E|-7-7-5-5-7--7-7-5-5-5-- x4

Break (jungle noises)

Verse x8

Chorus x4

Outro
G|---------------------------------------------------------------|
D|---------------------------------------------------------------|
A|---------------------------------------------------------------|
E|-xxxxxxxxxxxxx---xxxxxxxxx-x-x---xxxxxxxxxxxxx---xxxxxxxxx-x-x-|



Get this song at amazon.com      Ebay     Ringtones Ringtones  


Learn to play: Songwriting, Piano, Harmonica, Guitar
Also available at Muzikum: Red Hot Chili Peppers - Battleship lyrics

Related Red Hot Chili Peppers Bass Tabs

The Righteous The Wicked bass
Flea: Bass Solo 2 bass
Desecration Smile Bass Tab bass
Meister bass
Stadium Arcadium bass
Factory Of Faith bass
Breaking The Girl (Version 2) bass
By The Way Solo bass
Skinny Sweaty Man bass
The Power Of Equality bass
Love Rollercoaster bass
Felas Cock bass
Universally Speaking bass
Dosed (perfect ;) bass
Storm In A Teacup bass
What It Is bass
Fire bass
Tearjerker bass
Nobody Weird Like Me bass
Woodstock Intro Bass Solo bass


Guitar Tabs









All tabs are property and copyright of their owners. All tabs provided for educational purposes only. Privacy Policy, DMCA