Red Hot Chili Peppers

Bass Solo Bass Tabs



More from Red Hot Chili Peppers

Red Hot Chili Peppers Tabs
Red Hot Chili Peppers Chords
Red Hot Chili Peppers Bass
Red Hot Chili Peppers Lyrics




Artist- Red Hot Chili Peppers
Song- Flea Bass Solo (live)

Beginning
G|-9~~~-|-9~~~-||
D|-7~~~-|-7~~~-||
A|------|------||
E|------|------||

G|-----|---------------------5h7---||
D|-----|-----------------5---------||
A|-----|-----------5h7-x-----------||
E|-12\-|-0--0-0--0---------0-----0-||

G|-----------------------5-|---------------------5h7---|-------------------------||
D|-----------------x-5-----|-----------------5---------|-------------------------||
A|-------------5h7---------|-----------5h7-x-----------|-------------5--5-5--5/7-||
E|-0-0--0--0-0---------0---|-0--0-0--0---------0-----0-|-0--0-0--0-0-------------||

G|------------------5h7---|-----------------------5-|-------------------------||
D|--------------5---------|-----------------x-5-----|-------------------------||
A|--------5h7-x-----------|-------------5h7---------|-------------5--5-5--5/7-||
E|-0--0-0---------0-----0-|-0-0--0--0-0---------0---|-0--0-0--0-0-------------||

G|-----------------------------||
D|---------------------7---7h9-|| x3
A|---------------7h9-x---x-----||
E|-5/7-7-7--7-7----------------||

G|------------------------||
D|----------------10---12-||
A|------------------------||
E|-7--7-7--7-7--x----x----||

G|-------7-5---------5---5h7-||
D|-----------x-5h7-x---x-----|| x7
A|---------------------------||
E|-0h5-x---------------------||

G|-------7-5---------5-||
D|-----------x-5h7-x---||
A|---------------------||
E|-0h5-x---------------||

G|-------8-6---------6-||
D|-----------x-6h8-x---|| x3
A|---------------------||
E|-0h6-x---------------||

G|-------8-6---------6-||
D|-----------x-6h8-x---||
A|---------------------||
E|-0h6-x---------------||

G|-------7-5---------5---5h7-||
D|-----------x-5h7-x---x-----|| x3
A|---------------------------||
E|-0h5-x---------------------||

G|-------7-5---------5-||
D|-----------x-5h7-x---||
A|---------------------||
E|-0h5-x---------------||

Middle
G|-5/7--9-7-9-10-|-9-10-12-10-12-|-14-||
D|---------------|---------------|----||
A|---------------|---------------|----||
E|---------------|---------------|----||

G|-14^-|----|-14^-||
D|-----|----|-----||
A|-----|-12-|-----||
E|-----|----|-----||

G|----|-14^-|-----||
D|----|-----|-----||
A|-12-|-----|-12\-||
E|----|-----|-----||

G|-------7-5---------5---5h7-|-------7-5---------5-|-------7-5---------5---5h7-||
D|-----------x-5h7-x---x-----|-----------x-5h7-x---|-----------x-5h7-x---x-----||
A|---------------------------|---------------------|---------------------------||
E|-0h5-x---------------------|-0h5-x---------------|-0h5-x---------------------||

G|-------7-5---------5-||
D|-----------x-5h7-x---||
A|---------------------||
E|-0h5-x---------------||

G|-------7-5---------5---5h7-||
D|-----------x-5h7-x---x-----|| x3
A|---------------------------||
E|-0h5-x---------------------||

G|-------7-5---------5-||
D|-----------x-5h7-x---||
A|---------------------||
E|-0h5-x---------------||

End
G|-5-7---------2-0-|-3---7-5-----0-3-||
D|-----0-2-3-0-----|---0-----2-3-----||
A|-----------------|-----------------||
E|-----------------|-----------------||

G|-2-----------7-0-|-3---3-2-0-7-5---|-------3-2-0-7-5-||
D|---0-3-5-3-0-----|---0-----------3-|-2-0-0-----------||
A|-----------------|-----------------|-----------------||
E|-----------------|-----------------|-----------------||

G|-2-3-------7-5-2-|-3-2---7-5-2-0-3-|-2-0-------3-2-0-||
D|-----0-3-2-------|-----0-----------|-----3-2-0-------||
A|-----------------|-----------------|-----------------||
E|-----------------|-----------------|-----------------||

G|-7-5-3-2-0-------|-R-|-----------||
D|-----------3-2-0-|-E-|-----------||
A|-----------------|-S-|-----------||
E|-----------------|-T-|-0----0--0-||

G|-----------------|-------|----||
D|-----------------|-------|-7^-||
A|-----------------|-------|----||
E|-0--0-0-00000000-|-00000-|----||

G|-R-|-9~~~-|-R-||
D|-E-|-7~~~-|-E-||
A|-S-|------|-S-||
E|-T-|------|-T-||

G|---------------------5h7---|-----------------------5-||
D|-----------------5---------|-----------------x-5-----||
A|-----------5h7-x-----------|-------------5h7---------||
E|-0--0-0--0---------0-----0-|-0-0--0--0-0---------0---||

G|---------------------5h7---|------------------------5-|------------------5h7---||
D|-----------------5---------|------------------x-5-----|--------------5---------||
A|-----------5h7-x-----------|-------------5h7----------|--------5h7-x-----------||
E|-0--0-0--0---------0-----0-|-0-0--0--0-0----------0---|-0--0-0---------0-----0-||

G|-----------------------5-||
D|-----------------x-5-----||
A|-------------5h7---------||
E|-0-0--0--0-0---------0---||

G|------------------------5h7-||
D|------------------x-5-------|| x7
A|--------------5-7-----------||
E|-0--0-0--0-0----------0-----||

G|------------------||
D|------------------||
A|--------------5/7-||
E|-0--0-0--0-0------||

G|------||
D|------||
A|------||
E|-5~~~-||



Get this song at amazon.com      Ebay     Ringtones Ringtones  


Learn to play: Songwriting, Piano, Harmonica, Guitar
More Red Hot Chili Peppers lyrics available at Muzikum

Related Red Hot Chili Peppers Bass Tabs

Bass Solo bass
Universally Speaking bass
Battleship bass
Wet Sand bass
Dani California (100% Correct) bass
Knock Me Down bass
Desecration Smile bass
Apache Rose Peacock bass
Arpeggiating bass
Danni California bass
Mommy Wheres Daddy bass
What Is Soul bass
Castles Made Of Sand bass
Grand Pappy Du Plenty bass
Higher Ground bass
By The Way (correct) bass
Song That Made Us What We Are Today bass
Transcending bass
Look Around bass
Sex Rap bass


Guitar Tabs









All tabs are property and copyright of their owners. All tabs provided for educational purposes only. Privacy Policy, DMCA