Red Hot Chili Peppers

Baby Apeal Bass Tabs



More from Red Hot Chili Peppers

Red Hot Chili Peppers Tabs
Red Hot Chili Peppers Chords
Red Hot Chili Peppers Bass
Red Hot Chili Peppers Lyrics




Verse

There are 3 main riffs

Verse Riff 1

|-----------------|----------------|
|4--44-2-4------2-|4---------------|
|------------2h4--|----------------|
|-----------------|----------------|

Verse Riff 2

|-----------------|----------------|
|4--44-2-4------2-|4---------------|
|------------2h4--|----------------|
|-----------------|--2202-02-02----|

Verse Riff 3

|----------------|----------------|
|----------------|----------------|
|5--55-3-5------3|5---------------|
|------------3h5-|----------------|

Chorus

|----------------|----------------|----------------|
|------------3/--|----------------|----------------|
|------4-5-------|----4---5-------|----------------|
|0---------------|0-----------0---|3-------5-------|

Interlude

|----------------|
|----------------| X7
|----------------|
|0-0---------0-0-|

|---------------|
|---------------|
|---------------|
|6/7---6/7---6/7|

|----------------|----------------|----------------|-----------------|
|----------------|----------------|----------------|-----------------|
|----------------|----------------|----------------|-----------------|
|0---------------|0---------------|0---------------|0-----------15/--|

Outro

|--------|--------|--------|
|--------|--------|--------|
|--------|--------|--------|
|-0-0-0-0|-0-0-0-0|00----00|



Get this song at amazon.com      Ebay     Ringtones Ringtones  


Learn to play: Songwriting, Piano, Harmonica, Guitar
More Red Hot Chili Peppers lyrics available at Muzikum

Related Red Hot Chili Peppers Bass Tabs

C'mon Girl bass
Readymade bass
Dani California bass
She Looks To Me bass
Funky Crime bass
This Is The Place bass
Behind The Sun bass
Fight Like A Brave bass
Higher Ground bass
Hump De Bump bass
Overfunk (b-side) (corrected) bass
Road Trippin bass
Fortune Faded bass
I Could Have Lied bass
Savior bass
Spell Correctly bass
Can't Stop (easy To Slap) bass
Californication (100% Correct!) bass
Give It Away(correct) bass
Show Me Your Soul bass


Guitar Tabs









All tabs are property and copyright of their owners. All tabs provided for educational purposes only. Privacy Policy, DMCA