Red Hot Chili Peppers

Awakening Bass Tabs



More from Red Hot Chili Peppers

Red Hot Chili Peppers Tabs
Red Hot Chili Peppers Chords
Red Hot Chili Peppers Bass
Red Hot Chili Peppers Lyrics




Intro [x2] last time:
|--r--|--------------------------------|-8-7-6-5----|
|--e--|--------------------------------|---------7--|
|--s--|--7-----55-7-----55-5----55-7~--|------------|
|--t--|--------------------------------|------------|

Verse ("walking through...") [x2]
|--------------------------------------------------------------------------------------|
|-----------------------------------------79---------------------------5--5h7p5h7p5h7--|
|-777--77--77--77--777777--77--77--77--79----555--55--55--55--55--7^----7--------------|
|--------------------------------------------------------------------------------------|

Pre chorus ("well you'll see...") [x2]
|-------------------------------------------------------------|
|-------------------------------------------------------------|
|-------------------------------------------------------------|
|-1111111-00000000-11111111-00000000-1~--3-5-3-0~--0h1p0h1p0--|

Chorus [x2]
|---------------------------------|
|---------------------------------|
|-3---5---777-77-77-77777--3---5--|
|---------------------------------|

Pre fast bit
|---------------------------|
|---------------------------|
|-7--8--12--7--7--8--12--7--|
|---------------------------|

Fast bit
a. b.
|-------------------------|-------------------------|
|-------------------------|--7-5---7-5---7-5---7-5--|
|--7-5---7-5---7-5---7-5--|------7-----7-----7------|
|------7-----7-----7------|-------------------------|

order= a [x2]
b
a [x3]
b

Solo
|----------------------765------------------------765--|
|-----------------------------------5-3----------------|
|-777-77-77-79-555-55-5----333-33-3--3---555-555-5-----|
|------------------------------------------------------|



Get this song at amazon.com      Ebay     Ringtones Ringtones  


Learn to play: Songwriting, Piano, Harmonica, Guitar
More Red Hot Chili Peppers lyrics available at Muzikum

Related Red Hot Chili Peppers Bass Tabs

Savior bass
Good Time Boys bass
Show Me Your Soul bass
Around The World2 bass
Subway To Venus bass
Californication (live At Slane) bass
Rollercoaster Of Love bass
Arpeggiating bass
Rolling Sly Stone bass
This Velvet Glove bass
Strip My Mind bass
Emit Remmus bass
Can't Stop Good I Think bass
Hey bass
Get Up And Jump bass
They're Red Hot bass
Theyre Red Hot bass
Hump De Bump Bass bass
Dosed (perfect ;) bass
Tearjerker bass


Guitar Tabs









All tabs are property and copyright of their owners. All tabs provided for educational purposes only. Privacy Policy, DMCA