Red Hot Chili Peppers

Around The World Outro Tabs



More from Red Hot Chili Peppers

Red Hot Chili Peppers Tabs
Red Hot Chili Peppers Chords
Red Hot Chili Peppers Bass
Red Hot Chili Peppers Lyrics

you have to view this in a pretty small font size or the alignment will mess up


if youre viewing in internet explorer
goto view>text size and choose smallest
I've written the guitar and bass for the outro        
The notes given as well as the no. of times he plays them are 100% correct
Make sure in the guitar bit that u don't strum any of the strings other than
the ones said or it wont sound rite
Also it sounds different from guitar to guitar better on an acoustic
hence if playing on an electric make sure u set the pickups for the back
most one i.e. lead or whatever ( I don't know )
Make sure u got the rite kind of strings etc
If u find it wrong or aren't able to play it then either u aren't fast enough
or u aren't good enough
The tabs perfect u don't need to look anywhere else
It sounds identical to the song when me n my drummer friend play it
It might seem very long and hard but u have to play it so fast that it's
nothing in terms of length though u have to play it quite fast    

                                GUITAR      
      
---------------------------------------------------------------------------------------------------------
6-6---6-6---6-6---6-6---6-6---6-6---6-6---6-6---6-6---6-6---6-6---6-6---6-6---6-6---6-6---6/8---8-8---8-8    
7-7---7-7---7-7---7-7---7-7---7-7---7-7---7-7---7-7---7-7---7-7---7-7---7-7---7-7---7-7---7/9---9-9---9-9
---------------------------------------------------------------------------------------------------------
---------------------------------------------------------------------------------------------------------
---------------------------------------------------------------------------------------------------------

---------------------------------------------------------------------------------------------------------
8-8---8-8---8-8---8-8---8-8---8-8---10-10---10-10---10-10---10-10---10-10---10-10---10-10---10-10--------
9-9---9-9---9-9---9-9---9-9---9-9---10-10---10-10---10-10---10-10---10-10---10-10---10-10---10-10--------
---------------------------------------------------------------------------------------------------------
---------------------------------------------------------------------------------------------------------
---------------------------------------------------------------------------------------------------------

---------------------------------------------------------------------------------------------------------
6-6---6-6---6-6---6-6---6-6---6-6---6-6---6-6---6-6---6-6---6-6---6-6---6-6---6-6---6-6---6/8---8-8---8-8                                                                                                  
7-7---7-7---7-7---7-7---7-7---7-7---7-7---7-7---7-7---7-7---7-7---7-7---7-7---7-7---7-7---7/9---9-9---9-9
---------------------------------------------------------------------------------------------------------
---------------------------------------------------------------------------------------------------------
---------------------------------------------------------------------------------------------------------

-----------------------------------------------------------------------8---8---8---8---8---8---8--------
8-8---8-8---8-8---8-8---8-8---8-8---10-10---10-10---10-10---10-10---10----------------------------------
9-9---9-9---9-9---9-9---9-9---9-9---10-10---10-10---10-10---10-10---10----------------------------------
--------------------------------------------------------------------------------------------------------
--------------------------------------------------------------------------------------------------------
--------------------------------------------------------------------------------------------------------

                              PLAY THESE LAST 2 BARS TWICE

---------------------------------------------------------------------------------------------------------
6-6---6-6---6-6---6-6---6-6---6-6---6-6---6-6---6-6---6-6---6-6---6-6---6-6---6-6---6-6---6/8---8-8---8-8    
7-7---7-7---7-7---7-7---7-7---7-7---7-7---7-7---7-7---7-7---7-7---7-7---7-7---7-7---7-7---7/9---9-9---9-9
---------------------------------------------------------------------------------------------------------
---------------------------------------------------------------------------------------------------------
---------------------------------------------------------------------------------------------------------

---------------------------------------------------------------------------------------------------------
8-8---8-8---8-8---8-8---8-8---8-8---10-10---10-10---10-10---10-10---10-10---10-10---10-10---10-10--------
9-9---9-9---9-9---9-9---9-9---9-9---10-10---10-10---10-10---10-10---10-10---10-10---10-10---10-10--------
---------------------------------------------------------------------------------------------------------
---------------------------------------------------------------------------------------------------------
---------------------------------------------------------------------------------------------------------


                                      BASS

----------------------------
--2--3--2-------------------
------------5--5--5--5--5---
----------------------------


|---------------------------------------|
|------------2--3--2- ------------------|      (play this riff  13 times)              
|-----3-----------------5--5--5--5--5---|                                                                      
|--5-----5------------------------------|

Last 2 Bars

-------------------------------------
-----------2-3-2---------------------
----3--------------5-/10-10-10-10----
--5---5------------------------------

-----------------------------------------------------------------------------
-----------2-3-2-------------------------------------------------------------
----3----------------5-/12-12-12-12slide down all the way to finish the song
--5---5----------------------------------------------------------------------
Get this song at amazon.com      Ebay     Ringtones Ringtones  


Learn to play: Songwriting, Piano, Harmonica, Guitar
Also available at Muzikum: Red Hot Chili Peppers - Around The World Outro lyrics

Related Red Hot Chili Peppers Tabs

Stadium Arcadium - Mars Bass tabs
Brothers Cup tabs
Velvet Glove tabs
Dani tabs
Teenager In Love Bass tabs
Parallel Universe Bass tabs
I Could Have Lied tabs
Body Of Water Bass tabs
Organic Beat tabs
Millionares Against Hunger tabs
The Zephyr Song Bass tabs
I Could Die For You (5) tabs
Venice Queen (3) tabs
FelaĊ½s Cock tabs
Purple Stain tabs
Body Of Water tabs
Even You Brutus? tabs
Soul To Squeeze tabs
Bicycle Song tabs
Zephyr Song Solo tabs


Guitar Tabs









All tabs are property and copyright of their owners. All tabs provided for educational purposes only. Privacy Policy, DMCA