Red Hot Chili Peppers

Animal Bar Bass Bass Tabs



More from Red Hot Chili Peppers

Red Hot Chili Peppers Tabs
Red Hot Chili Peppers Chords
Red Hot Chili Peppers Bass
Red Hot Chili Peppers Lyrics




Verse
G|66~-------------|
D|--7~------------|
A|---5~-----------|
D|----000000000000|
Hold the chord down the entire time
you’re playing the drop D 8ths.

Chorus
G|-----------------|---------77777777|
D|---------77777777|222555999--------|
A|222555999--------|-----------------|
D|-----------------|-----------------|

Bridge
G|11--11--11-|11--9--9--|7--7--7-|11--9--9-|
D|--99--99--9|--77-77-77|-55-55-5|--77-77-7|
A|-----------|----------|--------|---------|
D|-----------|----------|--------|---------|

Ending
G|66~-------|
D|--7~------|
A|---4-7-5~-|
D|----------|



Get this song at amazon.com      Ebay     Ringtones Ringtones  


Learn to play: Songwriting, Piano, Harmonica, Guitar
More Red Hot Chili Peppers lyrics available at Muzikum

Related Red Hot Chili Peppers Bass Tabs

Me and my friends intro bass
Roller coaster of love bass
Get Up And Jump bass
Strom In A Teacup bass
Walkabout bass
Dani California bass
Instrumental #1 bass
All Around The World bass
Ill Be Your Domino bass
Right On Time bass
She Looks To Me bass
Fire bass
Naked In Rain bass
No Chump Love Sucker bass
Sir Psycho Sexy bass
Californication(100%correct Really) bass
Quixoticelixer bass
Salute To Kareem bass
Give It Away (beginners Alternative) bass
Power Of Equality bass


Guitar Tabs









All tabs are property and copyright of their owners. All tabs provided for educational purposes only. Privacy Policy, DMCA