Red Hot Chili Peppers

All Around The World (excently Perfect) Bass Tabs



More from Red Hot Chili Peppers

Red Hot Chili Peppers Tabs
Red Hot Chili Peppers Chords
Red Hot Chili Peppers Bass
Red Hot Chili Peppers Lyrics




G||-------------------|----------------------|
D||-------------------|----------------------|
A||-------------------|----------------------|
E||--0s---------------|--0s---0s---0s---0s---|



---------------------------------------------------|
--12h14-14--12h14-14-12h14-14-12h14-12-------------|
---------------------------------------14-13-12-10-|
---------------------------------------------------|



---------------------------------------------------|
--12h14-14--12h14-14-12h14-14-12-------------------|
---------------------------------14-13-12-10-------|
---------------------------------------------12-10-|



---------------------------------------------------|
--12h14-14--12h14-14-12h14-14-12h14-12-------------|
---------------------------------------14-13-12-10-|
---------------------------------------------------|



---------------------------------------------------|
--12h14-14--12h14-14-12h14-14-12-------------------|
---------------------------------14-13-12-10-------|
---------------------------------------------12-10-|



---------------------------------------------------|
--12h14-14--12h14-14-12h14-14-12h14-12-------------|
---------------------------------------14-13-12-10-|
---------------------------------------------------|



---------------------------------------------------|
--12h14-14--12h14-14-12h14-14-12-------------------|
---------------------------------14-13-12-10-------|
---------------------------------------------12-10-|



---------------------------------------------------|
--12h14-14--12h14-14-12h14-14-12h14-12-------------|
---------------------------------------14-13-12-10-|
---------------------------------------------------|



---------------------------------------------------|-------------------|
--12h14-14--12h14-14-12h14-14-12-------------------|-------------------|
---------------------------------14-13-12-10-------|-------------------|
---------------------------------------------12-10-|--3/---------------|



------------------|-----------------------------|
------------------|------15---17--------14--15--|
------------------|-----------------------------|
------------------|--3------------1--0----------|



-------------------------------|-----------------------------|
------15---17--------15-14-----|------15---17--------14--15--|
---------------------------13--|-----------------------------|
--3------------1--0------------|--3------------1--0----------|



------------------------------|-----------------------------|
------15---17--------3-2------|------15---17--------14--15--|
-------------------1-----1-0--|-----------------------------|
--3------------1-3------------|--3------------1--0----------|



-----------------------------------------|-----------------------------|
------15---17----------------------------|------15---17--------14--15--|
-----------------------------------------|-----------------------------|
--3------------7h8p7h8p7h8--5h6p5h6p5h6--|--3------------1--0----------|



-----------------------------|-----------5----8----|------------7------7--|
------15---17------------3-5-|--6------------------|--5------5------------|
--------------------1--5-----|---------------------|----------------------|
--3------------1-3-----------|---------------------|----------------------|



----------------5----|------------------------|-----------5----8----|
--3--------6---------|-------------5------5-5-|--6------------------|
---------------------|--3------3-3------------|---------------------|
---------------------|------------------------|---------------------|



------------7------7--|----------------5----|-----------------------|
--5------5------------|--3--------6---------|------------5----10----|
----------------------|---------------------|--3------3-------------|
----------------------|---------------------|-----------------------|



-------------------|-----------------------------|
-------------------|------15---17--------14--15--|
-------------------|-----------------------------|
--3----------------|--3------------1--0----------|



-------------------------------|-----------------------------|
------15---17--------15-14-----|------15---17--------14--15--|
---------------------------13--|-----------------------------|
--3------------1--0------------|--3------------1--0----------|



------------------------------|-----------------------------|
------15---17--------3-2------|------15---17--------14--15--|
-------------------1-----1-0--|-----------------------------|
--3------------1-3------------|--3------------1--0----------|



-----------------------------------------|-----------------------------|
------15---17----------------------------|------15---17--------14--15--|
-----------------------------------------|-----------------------------|
--3------------7h8p7h8p7h8--5h6p5h6p5h6--|--3------------1--0----------|



-----------------------------|-----------5----8----|------------7------7--|
------15---17------------3-5-|--6------------------|--5------5------------|
--------------------1--5-----|---------------------|----------------------|
--3------------1-3-----------|---------------------|----------------------|



----------------5----|------------------------|-----------5----8----|
--3--------6---------|-------------5------5-5-|--6------------------|
---------------------|--3------3-3------------|---------------------|
---------------------|------------------------|---------------------|



------------7------7--|----------------5----|--------------------------|
--5------5------------|--3--------6---------|--------------------------|
----------------------|---------------------|--3------3-3-5----18/20---|
----------------------|---------------------|--------------------------|



---------------------------------------------------|
--12h14-14--12h14-14-12h14-14-12h14-12-------------|
---------------------------------------14-13-12-10-|
---------------------------------------------------|



---------------------------------------------------|
--12h14-14--12h14-14-12h14-14-12-------------------|
---------------------------------14-13-12-10-------|
---------------------------------------------12-10-|



---------------------------------------------------|
--12h14-14--12h14-14-12h14-14-12h14-12-------------|
---------------------------------------14-13-12-10-|
---------------------------------------------------|



---------------------------------------------------|
--12h14-14--12h14-14-12h14-14-12-------------------|
---------------------------------14-13-12-10-------|
---------------------------------------------12-10-|



---------------------------------------------------|
--12h14-14--12h14-14-12h14-14-12h14-12-------------|
---------------------------------------14-13-12-10-|
---------------------------------------------------|



---------------------------------------------------|
--12h14-14--12h14-14-12h14-14-12-------------------|
---------------------------------14-13-12-10-------|
---------------------------------------------12-10-|



---------------------------------------------------|
--12h14-14--12h14-14-12h14-14-12h14-12-------------|
---------------------------------------14-13-12-10-|
---------------------------------------------------|



---------------------------------------------------|
--12h14-14--12h14-14-12h14-14-12-------------------|
---------------------------------14-13-12-10-------|
---------------------------------------------12-10-|



-----------------------------|---------------------------------|
------15---17--------14--15--|------15---17--17-15-------------|
-----------------------------|---------------------17-15r------|
--3------------1--0----------|--3------------------------------|



-----------------------------|-------------------------------|
------15---17--------14--15--|------15---17--------15-14-----|
-----------------------------|---------------------------13--|
--3------------1--0----------|--3------------1--0------------|



-----------------------------|------------------------------|
------15---17--------14--15--|------15---17--------3-2------|
-----------------------------|-------------------1-----1-0--|
--3------------1--0----------|--3------------1-3------------|



-----------------------------|-----------------------------------------|
------15---17--------14--15--|------15---17----------------------------|
-----------------------------|-----------------------------------------|
--3------------1--0----------|--3------------7h8p7h8p7h8--5h6p5h6p5h6--|



-----------------------------|-------------------------------|
------15---17--------14--15--|-----------------------3---3-5-|
-----------------------------|---------------1-0-3-5---5-----|
--3------------1--0----------|--3---1--0-1-3-----------------|



----------------8---------|-------------------------|--------------------------|
--6---6--x-6----------6---|--5-------------5-----5--|----------------5--6-5----|
--------------------6---6-|-------------------------|--8----x-x-8-----------8--|
--------------------------|------3---3---3-----3----|--------------------------|



--5----5--5---------------|--------------------------|-------------------------|
--x-----------------------|--------------------------|-------------------------|
--6--------------3----3---|----------------6--5-3----|-------------------------|
---------------3----3---6-|--4---4--x-4-----------4--|--3---3---3---3-3----3-2-|



--------------------------|---------------------------|
--------------------------|---------------------3-5-5-|
--------------------------|--6---3---3---5-5--6-------|
--1---1-3--3--4--4--6--6--|---------------------------|



---------------------------|------------------------|--------------------------|
--6---6--6-6---6-6-----6---|--5---------------------|------------5---5---------|
---------------------6---6-|------------------------|--8---8-x-x-------8----8--|
---------------------------|------3---3---3-3----3--|--------------------------|



----------------------------|--------------------------|
----------------------------|--------------------------|
--6---6-3-6-3h-5--5--6-5-3--|----------------6---------|
----------------------------|--4---4--x-4--------0-4-0-|



-------------------------|--------------------------|-------------------|
-------------------------|----------------5--6-5----|-------------------|
-------------------------|----------8---8--------8--|--6----------------|
--3---3---3---3-3--x--x--|--1---1-------------------|-------------------|



------------------------------|------------------------------|
------------------------------|------------------------------|
--5-8-7-5--5--5--5-5-5--0-3-0-|--5-8-7-5--5--5--5-5-5--0-3-0-|
------------------------------|------------------------------|



------------------------------|------------------------------|
------------------------------|------------------------------|
--5-8-7-5--5--5--5-5-5--0-3-0-|--5-8-7-5--5--5--5-5-5--0-3-0-|
------------------------------|------------------------------|



------------------------------|------------------------------|
------------------------------|------------------------------|
--5-8-7-5--5--5--5-5-5--0-3-0-|--5-8-7-5--5--5--5-5-5--0-3-0-|
------------------------------|------------------------------|



------------------------------|------------------------------|
------------------------------|------------------------------|
--5-8-7-5--5--5--5-5-5--0-3-0-|--5-8-7-5--5--5--5-5-5--0-3-0-|
------------------------------|------------------------------|



------------------------------|------------------------------|
------------------------------|------------------------------|
--5-8-7-5--5--5--5-5-5--0-3-0-|--5-8-7-5--5--5--5-5-5--0-3-0-|
------------------------------|------------------------------|



------------------------------|------------------------------|
------------------------------|------------------------------|
--5-8-7-5--5--5--5-5-5--0-3-0-|--5-8-7-5--5--5--5-5-5--0-3-0-|
------------------------------|------------------------------|



------------------------------|------------------------------|
------------------------------|------------------------------|
--5-8-7-5--5--5--5-5-5--0-3-0-|--5-8-7-5--5--5--5-5-5--0-3-0-|
------------------------------|------------------------------|



-------------------------------------|------------------------------||
-------------------------------------|------------------------------||
--5-8-7-5--10--10-10-10-10-10--0-3-0-|--5-8-7-5--12--12--12--12-----||
-------------------------------------|------------------------------||



Get this song at amazon.com      Ebay     Ringtones Ringtones  


Learn to play: Songwriting, Piano, Harmonica, Guitar
More Red Hot Chili Peppers lyrics available at Muzikum

Related Red Hot Chili Peppers Bass Tabs

Hump De Bump bass
Instrumental No 1 bass
Off The Map Around The World bass
The Greeting Song bass
Body Of Water bass
Blood Sugar Sex Magik bass
One Big Mob bass
Over Funk bass
Sir Psycho Sexy bass
Leverage Of Space bass
Californiacation bass
Johnny Kick Hole In The Sky bass
Slowly Deeply bass
Californication(correct) bass
Johnny kick a hole in the sky bass
Buckle Down bass
Skinny Sweety Man bass
Breaking The Girl! bass
Cmon Girl bass
Dany California bass


Guitar Tabs









All tabs are property and copyright of their owners. All tabs provided for educational purposes only. Privacy Policy, DMCA

Online converter - videoconverter.com