Red Hot Chili Peppers

Aeroplane (perfect) Bass Tabs



More from Red Hot Chili Peppers

Red Hot Chili Peppers Tabs
Red Hot Chili Peppers Chords
Red Hot Chili Peppers Bass
Red Hot Chili Peppers Lyrics



Intro:
G|----17------17/19|17-------------|----------------|------------|
D|-----------------|---17-----------|-17-------------|------------|
A|/15--------------|-----15---15h17-|-------15-------|------------|
E|-----------------|----------------|-------------15|8-----8/15--|

G|-----------------|-17-----21--19--17-|-17---------|-----------|
D|------------17/19|------17--17--17---|----------17|-----------|
A|-15h17p15--------|-------------------|------------|15h17p15---|
E|-----------------|-------------------|------------|-----------|

Chorus 1:
G|--------------|--------------|----------|---------------------------|
D|--------------|--------------|----------|---------------------------|
A|--------------|--------------|----------|---------------------------|
E|-15---5--6---|-8~~--0h1/10--|-15--5-6-|-8-8-8-8/10-10-10/11-11/13-|

G|--------------|----------------|-------------|----------------|
D|--------------|----------------|-------------|-----------2-3--|
A|--------------|----------------|------0--1/5-|-3---3-3-3------|
E|-15---5--6---|-8~~--0-1----1h2|---3---------|----------------|

G|----------------|-----------------|--------------|-------------------|
D|----------------|-3-3h5-3---------|--------------|-3-3h5-5-5-3h5-5-5-|
A|-----1-3-3/5-3-5|---------5-3-----|-1-3-3/5-3-5--|-------------------|
E|-3-5------------|------------5-3-5|--------------|-------------------|

Bridge 1:
G|-----------7-7--|--5-5----------|-------------7-7-|--5-------3h5---X--|
D|--5-5-----------|---------3-5-5-|---5-5-----------|-------3h5---------|
A|---------------5|3-----5-6------|----------------5|3----X--------X---X|
E|-3-----5-6------|---------------|-3------5-6------|-------------------|

G|------------7-7--|--5-X---------|-------------|--7-7------5-5--|--8--7|
D|---5-5-----------|----------5-3-|---------5-5-|----------------|------|
A|----------------5|3------------3|5---0--------|-------5-3-----3|6--5--|
E|-3------5-6------|--------------|-------3----3|-6--------------|------|

G|----------7-7--|--5-5-----------|--------7-7--|-5-X-------0---0----|
D|--5-5----------|----------3-5-5-|-5-5---------|------3h5--3-5-3h5--|
A|--------------5|3-----3-6-------|------------5|3-------------------|
E|3-----3-6------|----------------|3----3-6-----|--------------------|


G|---------------|---5-5--------3-----|---------7-7-|----5-5------|
D|--5-5-----8-8--|--------3h5-3--5-3-5|--5-5--------|-------------|
A|---------------|--3---3-------------|------------5|3-------3-6-9|
E|-3----3-6-----7|--------------------|3-----3-6----|-------------|

Chorus 2:
G|--------------|--------------|----------|---------------------------|
D|--------------|--------------|----------|---------------------------|
A|--------------|--------------|----------|---------------------------|
E|-15---5--6---|-8~~--0h1/10--|-15--5-6-|-8-8-8-8/10-10-10/11-11/13-|

G|--------------|----------------|-------------|----------------|
D|--------------|----------------|-------------|----------------|
A|--------------|----------------|-------------|-------17~~-----|
E|-15---5--6---|-8~~--0-1----1h2|---5-6--8-8-9|-10-11-----15~~-|

G|--------------|----------------|--2-3-5-5/7-5-7-10-10h12-12-12-12-12|
D|--------------|-3-3h5-3-----3-5|------------------------------------|
A|---1-3-3/5-3-5|---------5------|------------------------------------|
E|3-5-----------|----------------|------------------------------------|

Bridge 2:
G|---------7-7--|--5-5-----------|--------7-7--|---5------X------X---|
D|---5-5--------|-----------3-5-5|-5-5---------|-------3-------------|
A|-------------5|3-----3-6-------|------------5|3----X---5----X-----X|
E|-3----3-6-----|----------------|3----3-6-----|---------X-----------|

G|----------7-7--|--5-----5---|-----------7-7--|---5-5-----10------|
D|---5-5---------|----3-------|----5-5---------|----------------8--|
A|--------------5|3-----X-----|---------------5|3------3------X----|
E|-3-----3-6-----|------------|--3-----3-6-----|-------------------|

G|----------7-7--|---5-5----------3-|--------------|--5-5--------3------|
D|--5-5----------|---------3-5p3----|--5-5----8-8--|-------3h5-3---5-3-5|
A|--------------5|3------3------5---|--------------|-3----3-------------|
E|3-----3-6------|------------------|3-----3-6----7|--------------------|

G|----------7-7--|----5-5------|
D|--5-5----------|-------------|
A|--------------5|3-------3-6-9|
E|-3----3-6------|-------------|

Chorus 3:
G|--------------|--------------|-------------|----------8-7---|
D|--------------|--------------|-------------|----7-9-------10|
A|--------------|--------------|-------------|--------9-------|
E|-15---5--6---|-8~~--0h1/10--|-15--5-6----|15-------------|

G|--------------|----------------|-------------|---------------|
D|--------------|----------------|-------------|---------------|
A|--------------|----------------|-------------|------17~~-----|
E|-15---5--6---|-8~~--0-1----1h2|---5-6--8-8-9|-10-11---15~~--|

Interlude:
G|----------|-----------|------------|------------|-------10--|
D|----------|-----------|------------|------------|-----------|
A|-------8-8|-10-10-----|-------8-8--|-10-10------|------8----|
E|-11-11----|--------11-|-11-11------|--------11--|11-11------|

G|-------10--12-12-10----|-------10-|------10--12-X-10---|---------|
D|-----12--12--------12--|--13------|----12--12-------12-|---------|
A|-10--------------------|-----8----|-10-----------------|------8-8|
E|-----------------------|11--------|--------------------|10-10----|

G|----------|------10--12-11-10---|-----------------|
D|----------|----12--12-------12--|-----------------|
A|-10-10-10-|-10------------------|------8-8--8-8-8-|
E|----------|---------------------|10-10------------|

Chorus 4:
G|--------------|--------------|-------------|------------------------|
D|--------------|--------------|-------------|------------------------|
A|--------------|--------------|-------------|--------------17~~------|
E|-15---5--6---|-8~~--0h1/10--|-15--5-6-8~~|--3/135/183------15~~-|

G|--------------|----------------|-------------|---------------|
D|--------------|----------------|-------------|---------------|
A|--------------|----------------|-------------|------17~~-----|
E|-15---5--6---|-8~~--0-1----1h2|---5-6--8-8-9|-10-11---15~~--|

Bass Solo:
G|--------X-3-4---------|----------------------|----------------------|
D|------5-------3-3--5-3|----------------------|----------------------|
A|-----------------5----|-3-X-1-1-3-1----------|----------------------|
E|--3-------------------|-------------3-1-1-1-2|-3-3-3-3-1-1--315/3--|

G|--------------------------|----------3--|--------------------|
D|--------------------------|---5-3-------|--------------------|
A|--3-3-3-3-1-1--X3-X4-X5---|---------4---|-3-1---3-1----------|
E|--------------------------|-3-----------|-----------3-1-1-1-2|

G|-------------3-4-----------|----5----------|
D|---------5-5-----5--3------|---------------|
A|-------5-----------5--X-4--|-3-------------|
E|---3----------------------X|--------319/3-|
P
Outro:
G|-------------------|-------------------|---------------------|
D|-------------------|-------------------|------7-7-8-8-9-9--9-|
A|------0-0-1-1-2-2--|--3-3-5-5-6-6-8-8--|10-10----------------|
E|-3-3---------------|-------------------|---------------------|

G|----------------------10-10-|-10h12-12-10-10--------------|
D|-10-10-10-12-12-13-13-------|----------------13-13-12-12--|
A|----------------------------|-----------------------------|
E|----------------------------|-----------------------------|

G|-------------------------|-------------------|-----------------|
D|-10-10-------------------|-------------------|-----------------|
A|-------13-13-12-12-11-11-|-10-10-8-8-6-6-5-5-|-3-3-------------|
E|-------------------------|-------------------|-----6-6-5-5-4---|

G|-------------------|-------------------|------------------------|
D|-------------------|-------------------|----------7-7-8-8-9-9-9-|
A|-------0-0-1-1-2-2-|-3-3-3-5-5-6-6-8-8-|-10-10-10---------------|
E|-3-3-3-------------|-------------------|------------------------|

G|--------------------10-10-|-10h12-12-12-10-10-------------|
D|-10-10-12-12-13-13--------|-------------------13-13-12-12-|
A|--------------------------|-------------------------------|
E|--------------------------|-------------------------------|

G|--------------------------------------|----------------------|
D|--13-12-10-12-10----10----------------|----------------------|
A|-----------------12----13-12-13-12-10-|-10-10-10-8-8-6-6-5-5-|
E|--------------------------------------|----------------------|

G|-----------------|-------------|--------|---------|
D|-----------------|-------------|--------|-----17/-|
A|-3-3-------------|-------------|--------|---------|
E|-----6-6-5-5-4-4-|-3~~~-3/15~~-|-(15)---|---------|



Get this song at amazon.com      Ebay     Ringtones Ringtones  


Learn to play: Songwriting, Piano, Harmonica, Guitar
More Red Hot Chili Peppers lyrics available at Muzikum

Related Red Hot Chili Peppers Bass Tabs

Yertle The Turtle bass
Brandy bass
The Song That Made Us What We Are Today bass
Blues For Meister bass
Higher Ground bass
Can't Stop (correct) bass
The Righteous And The Wicked(4 String) bass
Californication (Version 2) bass
Backwoods3 bass
Under The Bridge (100% Correct) bass
All Around The World bass
I Could Have Lied (live) bass
Fly bass
By The Way (live) bass
Song That Made Us What We Are Today bass
Under The Bridge (live) bass
Tear (complete) bass
Funky Crime bass
Bunker Hill bass
Mommy Wheres Daddy bass


Guitar Tabs









All tabs are property and copyright of their owners. All tabs provided for educational purposes only. Privacy Policy, DMCA