Red Hot Chili Peppers

Aeroplane Bass Tabs



More from Red Hot Chili Peppers

Red Hot Chili Peppers Tabs
Red Hot Chili Peppers Chords
Red Hot Chili Peppers Bass
Red Hot Chili Peppers Lyrics

From: Owestphale@aol.com (unknown)
    "Aeroplane" by The Red Hot Chili Peppers
    =46rom the CD "One Hot Minute"
    Written by Anthony Kiedis, Flea, Dave Navarro, and Chad Smith
    Tabbed by Olaf Westphalen for bass guitar
    
    Although Murzik01@aol.com's version of "Aeroplane" was a good overview, I=
    thought I'd add a little more detail to the various intricacies of the so=
    ng.  My 
    version isn't perfect, but it works for me.  Unfortunately, my version do=
    esn't =
    have any rhythm notation; a lot if it is syncnopated, although several se=
    ctions =
    are plain quarter notes.  Flea does great job at mixing it up, cool stuff=
    =2E  The =
    slap and pop verses are ad lib territory, have fun and funk it up! I play=
     the G =
    note that starts the riff in the chorus on the second string, fret 10, so=
     I can =
    get maximum vibratoage.  The solo is off the CD; the solo that I hear on =
    the =
    radio seems to be cut short, so if you see more notes tabbed than you're =
    accustomed to hearing, get the CD.  This bass tab was created with Bucket=
     'O Tab =
    Version 1.02 copyright 1194 Scott Evans, which I found very easy to use. =
     If you =
    have any comments, questions, and/or suggestions, you can contact me at =
    owestphalen@ensr.com.
    Here it is.......
    
    
                                        AEROPLANE
    				RED HOT CHILI PEPPERS
    
    Intro                                                                    =
    
    -|------|------|----------|----|-------------|--17---------|--21------19-=
    -|------|------|----------|----|------17h19--|------17h19--|------19-----=
    -19----
    -|--15--|--15--|--15--15--|3--|--15---------|-------------|-------------=
    -|------|------|----------|----|-------------|-------------|-------------=
                                                                             =
           =
    
                      Trill       Chorus                                     =
           =
    
    17--|--17-----------------||----------------------|-----------------|----=
    -------
    ----|------15h17----------||----------------------|-----------------|----=
    -------
    ----|--------------15h17--||---10~~~--0--0--1--1--|--3--------------|----=
    -0-----
    ----|---------------------||----------------------|-----0--0--1--1--|--3-=
    -------
                                                                             =
    
    ------|--------------|---------------------|-----------------|-----------=
    -------
    ------|--------------|---------------------|-----------------|-----------=
    -------
    1--5--|--3--5--6--8--|--10~~~--0--0--1--1--|--3--------------|-----0--1--=
    5------
    ------|--------------|---------------------|-----0--0--1--1--|--3--------=
    -------
                                                                             =
    
    |-----------------||------------------|-------------------||--||---------=
    -------
    |-----------------||*-----------------|------------------*||--||*--------=
    -------
    |--3--------------||*-----0--1--3--5--|--3--5--6--8--10--*||--||*--------=
    -------
    |-----0--0--1--1--||---3--------------|-------------------||--||---------=
    -------
                                                                             =
    Verse (varies)                                     Chorus                =
           =
    
    -------------------8-----------5---------------||----------------------|-=
    -------
    ----5-----------8-----------------------------*||----------------------|-=
    -------
    ----------------------6--5--3-----3--5--6-----*||---10~~~--0--0--1--1--|-=
    -3-----
    -3-----3--5--6-----------------------------1---||----------------------|-=
    -------
                                                                             =
    
    ------------|--------------|--------------|---------------------|--------=
    -------
    ------------|--------------|--------------|---------------------|--------=
    -------
    ------------|-----0--1--5--|--3--5--6/17--|---------0--0--1--1--|--3-----=
    -------
    0--0--1--1--|--3-----------|--------------|--15~~~--------------|-----0--=
    0------
    
                                                                         =
    ------|--------------|-----------------|-----------------|---------------=
    -------
    ------|--------------|-----------------|-----------------|---------------=
    -------
    ------|-----0--1--5--|--3--------------|-----0--1--3--5--|--3--5--6--8--1=
    0------
    1--1--|--3-----------|-----0--0--1--1--|--3--------------|---------------=
    -------
                                                                             =
    
    |--------------------|----------9--10h12--12--12--10h12--12--||----------=
    -------
    |------7--8--10--12--|--10--12-------------------------------||----------=
    -------
    |--10----------------|---------------------------------------||----------=
    -------
    |--------------------|---------------------------------------||----------=
    -------
                                                                             =
           =
    Verse (as above)       Chorus                                            =
           =
    
    -------------------||----------------------|-----------------|-----------=
    -------
    -------------------||----------------------|-----------------|-----------=
    -------
    -------------------||---10~~~--0--0--1--1--|--3--------------|-----0--1--=
    5------
    -------------------||----------------------|-----0--0--1--1--|--3--------=
    -------
                                                                             =
    
    |-----------------------------|---------------------|-----------------|--=
    -------
    |---------10------13--12--10--|---------------------|-----------------|--=
    -------
    |--3--10------10--------------|--10~~~--0--0--1--1--|--3--------------|--=
    -------
    |-----------------------------|---------------------|-----0--0--1--1--|--=
    3------
                                                                             =
                                    Bridge                         Varies    =
           =
    
    ---------|-----------------||-------------------------||--||-------------=
    -------
    ---------|-----------------||*-----------------------*||--||*------------=
    -------
    0--1--5--|--3--------------||*---6--6--8--8--10--10--*||--||*---6--6--8--=
    8------
    ---------|-----0--0--1--1--||-------------------------||--||-------------=
    -------
                                                                             =
    
                                                         Chorus              =
           =
    
    --------10------12--12--10-------||--------------||----------------------=
    |------
    ----12------12--------------12--*||--------------||----------------------=
    |------
    10------------------------------*||--10--10--10--||---10~~~--0--0--1--1--=
    |------
    ---------------------------------||--------------||----------------------=
    |------
                                                                             =
    
    ---------------|--------------|------------|---------------------|-------=
    -------
    ---------------|--------------|------------|---------------------|-------=
    -------
    3--------------|-----0--1--5--|--3--x/x/x--|--10~~~--0--0--1--1--|--3----=
    -------
    ---0--0--1--1--|--3-----------|------------|---------------------|-----0-=
    -0-----
                                                                             =
                                               Solo                          =
           =
    
    ------|--------------|-----------------||------0--3--4-----------------|-=
    -------
    ------|--------------|-----------------||---------------5-----5--3-----|-=
    -------
    ------|-----0--1--5--|--3--------------||------------------5--------5--|-=
    -3-----
    1--1--|--3-----------|-----0--0--1--1--||---3--------------------------|-=
    -------
    
                                                                         =
    ------------------------|----------------|-------------------------------=
    -------
    ------------------------|----------------|-------------------------------=
    -------
    1--1--3--1--------------|----------------|--3--3--1--1--(1)--(3)--(1)--(3=
    )------
    ------------3--1--2--3--|--3--3--1--1/x--|-------------------------------=
    -------
                                                                             =
    
    -----|--------3-----|-----------------------------|--------------3-------=
    -------
    -----|--5--3--------|-----------------------------|--------3--5-----5--3-=
    -------
    (1)--|-----------4--|--3--1--1--3--1--------------|-----5----------------=
    -5-----
    -----|--------------|-----------------3--1--2--3--|--3-------------------=
    -------
                                                                             =
                           Ending                                            =
           =
    
    ---------------5--||----------------------------|------------------------=
    --|----
    5--3--------------||*---------------------------|--------0--0--1--1--3--3=
    --|----
    ------5--4--3-----||*---------0--0--1--1--2--2--|--3--3------------------=
    --|----
    ------------------||----3--3--------------------|------------------------=
    --|----
                                                                             =
                                                                             =
    
    ------------------------|----------------------------------|-------------=
    -------
    5--5--7--7--8--8--9--9--|--10--10--12--12--13--13--15--15--|--17--17--15-=
    -15----
    ------------------------|----------------------------------|-------------=
    -------
    ------------------------|----------------------------------|-------------=
    -------
                                                                             =
    
    
    ----------------|----------------------------|--------------------------|=
    -------
    13--13--12--12--|--10--10--9--9--8--8--7--7--|--5--5--3--3--1--1--0--0--|=
    -------
    ----------------|----------------------------|--------------------------|=
    --3----
    ----------------|----------------------------|--------------------------|=
    -------
                                                                             =
    
    
    ----------------------||-------------------------------------------------=
    -------
    ---------------------*||-------------------------------------------------=
    -------
    3--2--2--1--1--0--0--*||-------------------------------------------------=
    -------
    ----------------------||--3----------------------------------------------=
    -------
                                                                             =
    
    
    ----------                            ----------
    ----5h8--- Hammeron                   ----(8)--- Ghost Note
    ----------                            ----------
    ----5p8--- Pulloff                    ----------
    
    ----------                            ----------
    ----5/8--- Slide Up                   -----x---- Dead Note
    ----------                            ----------
    ----58--- Slide Down                 ----------
   
    ----------                            ||------|| Repeat Start & End
    ----5~~~-- Vibrato                    ||*----*||
    ----------                            ||*----*||
    ----------                            ||------||
  
    Rhythm:
      w = whole note            W = dotted whole
      h = half note             H = dotted half
      q = quarter note          Q = dotted quarter
      e = eighth note           E = dotted eighth
      s = sixteenth note        S = dotted sixteenth
      ^ = triplet
Get this song at amazon.com      Ebay     Ringtones Ringtones  


Learn to play: Songwriting, Piano, Harmonica, Guitar
Also available at Muzikum: Red Hot Chili Peppers - Aeroplane lyrics

Related Red Hot Chili Peppers Bass Tabs

Out In La bass
Hyde Park: Bass Solo #3 bass
Catholic School Girls Rule bass
Throw Away Your Television bass
Dont Forget Me bass
Venice Queen bass
Dany California bass
Mexican Maid bass
Factory Of Faith bass
Tearjerker bass
Over Funk bass
Under The Bridge bass
Californication(correct) bass
Mellowship Slinky In B Major bass
123456 bass
Melancholy Mechanics bass
Leverage Of Space bass
Parallel Universe (%100 Perfect) bass
One Of Fleas Funky Solos bass
Out Of Range bass


Guitar Tabs









All tabs are property and copyright of their owners. All tabs provided for educational purposes only. Privacy Policy, DMCA