Red Hot Chili Peppers

123456 Bass Tabs



More from Red Hot Chili Peppers

Red Hot Chili Peppers Tabs
Red Hot Chili Peppers Chords
Red Hot Chili Peppers Bass
Red Hot Chili Peppers Lyrics




Hello,

I hope you all liked my Cemetary Gates tab but now for my second tab I'm going
to tab the song Otherside.

*=just me giving a note
(#)= the brackets just mean the number is higher then 10 to avoid confusion.



"Otherside" by the Red Hot Chili Peppers.


G|------------------------------------|
D|------------------------------------| x2
A|-----0-0--0------------3-3-3--------|
E|------------3--1-1-1-1-------2-3-3-3|


G|--------------------------------------|
D|--------------------------------------| x1
A|-----0-0--0------------3-3-3-----3-2--|
E|------------3--1-1-1-1-------2-3-----3|


G|------------------------------------|
D|------------------------------------| x1
A|-----0-0--0------------3-3-3--------|
E|------------3--1-1-1-1-------2-3-3-3|


G|------------------------------------------------------------|
D|---------------------(14)-(14)-(14)-(14)-(14)-(14)-(14)-(14)| x1
A|-----0-0-0-0-0-0-0-0----------------------------------------|
E|------------------------------------------------------------|

G|-----------------------------------|
D|---------------------(14)-(14)-9-99| x1
A|-----0-0-0-0-0-0-0-0---------------|
E|-----------------------------------|


G|------------------------------------------------------------|
D|---------------------(14)-(14)-(14)-(14)-(14)-(14)-(14)-(14)| x1
A|-----0-0-0-0-0-0-0-0----------------------------------------|
E|------------------------------------------------------------|


G|---------|
D|--------0| x1
A|-----3---|
E|---------|



G|------------------------------------------------------------|
D|---------------------(14)-(14)-(14)-(14)-(14)-(14)-(14)-(14)| x1
A|-----0-0-0-0-0-0-0-0----------------------------------------|
E|------------------------------------------------------------|


G|-----------------------------------|
D|---------------------(14)-(14)-9-99| x1
A|-----0-0-0-0-0-0-0-0---------------|
E|-----------------------------------|


G|------------------------------------------------------------|
D|---------------------(14)-(14)-(14)-(14)-(14)-(14)-(14)-(14)| x1
A|-----0-0-0-0-0-0-0-0----------------------------------------|
E|------------------------------------------------------------|



G|---------|
D|--------0| x2
A|-----3---|
E|---------|


G|----------------------------------------|
D|----------------------00000000-7-7-7-7--|
A|-----3333333333333333-----------7-7-7-7-| x1
E|----------------------------------------|


G|------------------------------------|
D|------------------------------------| x2
A|-----0-0--0------------3-3-3--------|
E|------------3--1-1-1-1-------2-3-3-3|


G|--------------------------------------|
D|--------------------------------------| x1
A|-----0-0--0------------3-3-3-----3-2--|
E|------------3--1-1-1-1-------2-3-----3|


G|------------------------------------|
D|------------------------------------| x1
A|-----0-0--0------------3-3-3--------|
E|------------3--1-1-1-1-------2-3-3-3|



G|--------------------------------------------|
D|---------------------------------------5-4--|
A|-------7-5-7---7-5-7---0-2-3-3-2-3-3-3-----5| x4
E|-----0-------0-------0----------------------|



G|------------------------------------|
D|------------------------------------| x2 *Pump on all the notes (8th notes)
A|-----0-0--0------------3-3-3--------|
E|------------3--1-1-1-1-------2-3-3-3|



G|--------------------------------------|
D|--------------------------------------| x1 *Pump on all the notes except the last 5 notes.
A|-----0-0--0------------3-3-3-----3-2--|
E|------------3--1-1-1-1-------2-3-----3|


G|------------------------------------|
D|------------------------------------| x2 *Pump on all the notes (8th notes)
A|-----0-0--0------------3-3-3--------|
E|------------3--1-1-1-1-------2-3-3-3|




G|--------------------------------------|
D|--------------------------------------| x1 *Pump on all the notes except the last 5 notes.
A|-----0-0--0------------3-3-3-----3-2--|
E|------------3--1-1-1-1-------2-3-----3|


and your done the song :D


Tabbed by Brandon.



Get this song at amazon.com      Ebay     Ringtones Ringtones  


Learn to play: Songwriting, Piano, Harmonica, Guitar
More Red Hot Chili Peppers lyrics available at Muzikum

Related Red Hot Chili Peppers Bass Tabs

Quick Jam bass
Apache Rose Peacock bass
Parallel Universe (%100 Perfect) bass
Under The Bridge (guitar Intro For Bass) bass
Rollercoaster Of Love bass
What It Is bass
She's Only 18 (correct) bass
Show Me Your Soul bass
Animal Bar Bass bass
Give It Away (fleas Way- I've Seen Him Do It This Way) bass
Meister bass
Savior bass
Annie Wants A Baby bass
By The Way (live) bass
Nobody Weird Like Me bass
Blood Sugar Sex Magik (whole Album) bass
Giveitaway bass
Knock Me Down bass
Quixotic Elixer bass
So Much I bass


Guitar Tabs









All tabs are property and copyright of their owners. All tabs provided for educational purposes only. Privacy Policy, DMCA