Ra

Ra - Taken guitar tab

Intro/Verse

e----------------------------------|

b----------------------------------|

g----------------------------------| (play 2 times)

d--------------10-10-10-7--7-7-7---|

a-0h3-3-3-3--3-8--8--8--7--7-7-7---|

d-0h3-3-3-3--3-8--8--8--7--7-7-7---|

(the third time)

e---------------------------------------------------|

b---------------------------------------------------|

g--------------------------------101010101010-x-x-x-|

d------------10-10-10-7--7-7-7----------------------|

a-0h3-3-3-3--8--8--8--7--7-7-7----8-8-8-8-8-8-x-x-x-|

d-0h3-3-3-3--8--8--8--7--7-7-7----------------------|

(then go into)

e---- ----|

b---- ----|

g-10- -12-|

d-0--(play about 6 times)-0--|(play about 6 times)

a-8-- -10-|

d-0-- -0--|

e---- ----|

b---- ----|

g-10- -14-|

d-0--(play about 6 times)-0--|(play about 4 times) THEN GO TO THE VERSE

a-8-- -12-|

d-0-- -0--|

AT (2:15) STRUM SOFT FOR BUILD UP

e---- ----- --- ----|

b---- ----- --- ----|

g-10- -10-- -9- -12-|

d-0--(PLAY ABOUT 6 TIMES) --0-- -0- -0--|

a-8-- --8-- -7- -10-|

d-0-- --0-- -0- -0--|

e----

b----

g-10-

d-0--(STRUM TILL THIS PART SLOWS DOWN)

a-8--

d-0--

e------------ ---------------------|

b------------ ---------------------|

g-9/10-10-10-(play three times)-9/10-10-10-12-12-12-|

d------------ ---------------------|

a-7/8--8--8-- -7/8--8--8--10-10-10-|

d------------ ---------------------|

PALM MUTE THIS WHOLE PART(3:10)

e---------------|

b---------------|

g----------9/10-|

d---------------|(PLAY ABOUT 8 TIMES)

a-XXXXXXXXX7/8--

d-XXXXXXXXX-----

e----------------|

b----------------|

g-----------9/10-|

d----------------|(PLAY 8 TIMES)

a-000000000-7/8--|

d-000000000------|

THEN GO INTO THE VERSEAdded by tabs-database.com and our distinguished partners

Get this song at:  amazon.com sheetmusicplus.com

Share your thoughts

0 Comments found